PrimaNota.ru - самый крупный в мире бесплатный архив песенных текстов, аккордов, табулатур и нот


Misc Unsigned Bands - Code Lyoko - Theme For - аккорды и текст

Регистрация Запомнить меня
Войти через:  Facebook Google Twitter Vk Yandex Mail.ru

Misc Unsigned Bands - Code Lyoko - Theme For - аккорды и текст

Печатать
Просмотров: 84
Уроки эстрадного вокала в Санкт-Петербурге
Code Lyoko - Theme For
Misc Unsigned Bands
e|-------8-----6-----5----------8-----6-----5--------------------------------|
B|--6-6-----6-----6-----6----6-----6-----6-----6-----------------------------|
G|---------------------------------------------------------------------------|
D|---------------------------------------------------------------------------|
A|---------------------------------------------------------------------------|
E|---------------------------------------------------------------------------|


e|-----8-----6-----5------------8-----6-5------------------------------------|
B|--6-----6-----6-----6------6-----6-------6-8-------------------------------|
G|---------------------------------------------------------------------------|
D|---------------------------------------------------------------------------|
A|---------------------------------------------------------------------------|
E|---------------------------------------------------------------------------|

F             C       Dm            Bb       F
Il existe un monde virtuel et différent
              C            Dm            Bb
Ou chaque seconde fait de nous des combattants
C                                Dm            C
Notre seul espoir est de tout reprogrammer

[Refrain] :
    F                    C
On ira on saura sauver notre existence
      Dm                      Bb
Se donner une chance de tout effacer
    F                    C
On ira on saura sauver notre existence
         Dm  Bb
Pour refaire un monde sans danger

F           C            Dm
Code Lyoko tout reprogrammer
           Bb               F
Code Lyoko un monde sans danger (x2)

              C             Dm            Bb       F
Tout est numérique et pixellisé dans ce monde
          C           Dm             Bb
Il nous faudra du courage et de l'entraide
                 C              Dm          C
Mais dites-vous bien que l'on risque notre vie

[Refrain]:

Bb         C         Dm        C        Bb
On vous promet de donner le maximum
             C            Dm             C
Contre la menace et de sauver tous les Hommes


    F                    C
On ira on saura sauver notre existence
      Dm                      Bb
Se donner une chance de tout effacer
    F                    C
On ira on saura sauver notre existence
         Dm  Bb
Pour refaire un monde sans danger

F           C            Dm
Code Lyoko tout reprogrammer
           Bb               F
Code Lyoko un monde sans danger (x2)

    F                    C
On ira on saura sauver notre existence
      Dm                      Bb
Se donner une chance de tout effacer
    F                    C
On ira on saura sauver notre existence
         Dm  Bb
Pour refaire un monde sans danger

F           C            Dm
Code Lyoko tout reprogrammer
           Bb               F
Code Lyoko un monde sans danger (x2)
Добавлено: 05.09.2015
Другие материалы по этой песне:
  • Аккорды и текст

Страница создана 05.09.2015
http://primanota.ru/misc-unsigned-bands/code-lyoko-theme-for-chords.htm
Привет, Гость.
Предлагаем пройти революционный курс по гитаре.
Подарок от PrimaNota.Ru, забирай!