PrimaNota.ru - самый крупный в мире бесплатный архив песенных текстов, аккордов, табулатур и нот


Misc Unsigned Bands - Cóctel - Faded - таба, видео

Регистрация Запомнить меня
Войти через:  Facebook Google Twitter Vk Yandex Mail.ru

Misc Unsigned Bands - Cóctel - Faded - таба, видео

Печатать
Просмотров: 139
Уроки эстрадного вокала в Санкт-Петербурге
-------------------------------------------------------------------------------
                             SONG NAME - Band Name
-------------------------------------------------------------------------------
Tabbed by: Kyle Mudry
E-mail: kmud2013@gmail.com

It's not 100%, but it sounds okay.

Tuning: EADGBe
---------------------

Song:   Faded
Artist: Cóctel
Album:  Enjoy

Acoustic cover this tab's for: youtube.com/watch?v=-gDq_fytHtQ


[Intro]
Main Riff

e|-----------------------------------------------------------------------------------|
B|-----------------------------------------------------------------------------------|
G|-----------5---------5------(Do that x3, the it goes)----------5---------5---------| Repeat until lyrics...
D|----5h7p5-----5h7p5----5------------------------------- 5h7p5-----5h7p5-----5\4----|
A|-----------------------------------------------------------------------------------|
E|-----------------------------------------------------------------------------------|

[Chorus]
(0:25) "Oh she's had too much.." 

e|-----------------------------------------------------------------------------------------------|
B|---------8---------8-----------------8---------8-----------------------------------------------|
G|--4h5p4-----4h5p4-----5-------4h5p4-----4h5p4-----4h5------------------------------------------| Repeat...
D|-------------------------7---------------------------------------------------------------------|
A|-----------------------------------------------------------------------------------------------|
E|-----------------------------------------------------------------------------------------------|


Then at (0:46) go back to playing the MAIN RIFF until Jesse begins a new verse. Right before he does play this:

e|------X----------------------------------------------------------------------X-----------------|
B|------X------------------5--------------------------------5--------5---------X-----------------|
G|---4--2----then pick--------5--2---then at the end play------5--2----5--2----5-----------------|
D|------2----------------------------------------------------------------------5-----------------|
A|------2----------------------------------------------------------------------5-----------------|
E|------X----------------------------------------------------------------------X-----------------|

***Then you go back to the main riff and transition into the chorus just like before***


Last part is the heavy strumming part, it goes like this:

[Verse]
(2:28) "You've always proved me wrong..."

e|-----------------------------------------------------------------------------------------------|
B|-----------------------------------------------------------------------------------------------|
G|-----------------------------------------------------------------------------------------------|
D|--7-7-7-7-7-7-7-7-7-7-7/9-9-9-9/5-5-5-5----------------7-7-7-7-7-7-7-7-7-7/9-9-9-9/14-14-14-14-|
A|--5-5-5-5-5-5-5-5-5-5-5/7-7-7-7/3-3-3-3--[x3]---then---5-5-5-5-5-5-5-5-5-5/7-7-7-7/12-12-12-12-|
E|-----------------------------------------------------------------------------------------------|

Next goes...

e|---------------------------------------------------------------------------|
B|---------------------------------------------------------------------------|
G|---------------------------------------------------------------------------|
D|--7-7-7-7-7-7-7-7-7-7-7/9-9-9-9/14-14-14/12-12-12-12-----------------------|   [Repeat x4]
A|--5-5-5-5-5-5-5-5-5-5-5/7-7-7-7/12-12-12/10-10-10-10-----------------------|
E|--5-5-5-5-5-5-5-5-5-5-5/7-7-7-7/12-12-12/10-10-10-10-----------------------|

While he sings play this:

e|---------------------------------------------------------------------------|
B|--17--15--13--17--15--13--17--15--13--12--13--10---------------------------|
G|---------------------------------------------------------------------------|
D|---------------------------------------------------------------------------|
A|---------------------------------------------------------------------------|
E|---------------------------------------------------------------------------|

Outro
(3:30) When the lyrics end start playing

e|---------------------------------------------------------------------------|
B|---------------------------------------------------------------------------|
G|---------5---------5-------------5---------5-------------------------------|
D|--5h7p5-----5h7p5----5----5h7p5-----5h7p5----5-----------------------------|
A|---------------------------------------------------------------------------|
E|---------------------------------------------------------------------------|

e|---------------------------------------------------------------------------|
B|---------------------------------------------------------------------------|
G|---------5---------5------------5--------5---------------------------------|
D|--5h7p5-----5h7p5----5---5h7p5----5h7p5----5h7--7--------------------------|
A|------------------------------------------------5--------------------------|
E|------------------------------------------------5--------------------------|

Enjoy!


************************************

| /   slide up
| \   slide down
| h   hammer-on
| p   pull-off
| ~   vibrato
| +   harmonic
| x   Mute note
| b   Bend
| pb  Pre-bend
| br  Bend release
| pbr Pre-bend release
| brb Bend release bend

************************************
Добавлено: 19.07.2015
Другие материалы по этой песне:
  • Аккорды и текст

Страница создана 19.07.2015
http://primanota.ru/misc-unsigned-bands/coctel-faded-chords.htm
Привет, Гость.
Предлагаем пройти революционный курс по гитаре.
Подарок от PrimaNota.Ru, забирай!