PrimaNota.ru - самый крупный в мире бесплатный архив песенных текстов, аккордов, табулатур и нот


Misc Unsigned Bands - Coalesce - Blue Collar Lullaby - таба

Регистрация Запомнить меня
Войти через:  Facebook Google Twitter Vk Yandex Mail.ru

Misc Unsigned Bands - Coalesce - Blue Collar Lullaby - таба

Печатать
Просмотров: 34
COALESCE
BLUE COLLAR LULLABY



Tunning C# standart


legato						---7h6h7---
bend(and release)				--7>(8)>7--
vibrato						--7~~~~~~--
slide						---7/8-----



Forma I-A:

      As long...
c# |---------------2--2-2------------0--0-0----------| 
g# |--------------5---5-5-----------5---5-5----------|
E  |-------------4----4-4----------0----0-0----------| 
B  |----------2-2-----2-2-------2-2-----2-2----------|
F# |-------------------------------------------------|
C# |------0-0---------------0-0----------------------|



Forma II:

     Just move... 
c# |----------------------------0---------------| 
g# |----------------------------0---------------|
E  |------------0---0--0---0--0-0---------------| 
B  |----------4----4--4-----4---2---------------|
F# |-------3h5-5--5--5--5-5--5--2---------------|
C# |----------------------------0---------------|



Forma III:

      We walk...                                Paid in strength...
c# |------------------------------0--------------------------------0---0-----| 
g# |------------------------------0--------------------------------0----0----|
E  |----------------------5-------0-------------------4---5--------0-----0---| 
B  |------7------12-------5-------2-------5-------7---4---5--------2---------|
F# |------7-------9-------3-------2-------5-------7---2---3--------2---------|
C# |------5------10---------------0-------3-------5----------------0---------|



Solo I:


c# |---------------------------------------------------------------------------------| 
g# |---12-12-12~--12-10---10-8---8-7~---7-8/10--8h10h8-7-8~---7h8h-5-7--5-7>(8)>7----|
E  |---------------------------------------------------------------------------------| 
B  |---------------------------------------------------------------------------------|
F# |---------------------------------------------------------------------------------|
C# |---------------------------------------------------------------------------------|


c# |---------------------------------------| 
g# |---7h8h-5-7--5-7>(8)>7-----------------|
E  |---------------------------------------| 
B  |---------------------------------------|
F# |---------------------------------------|
C# |---------------------------------------|


c# |-------------------------------------------------------| 
g# |---10-8-7--8-7-5--7-5----5-----------------------------|
E  |----------------------7----7-5--7-5-4--5-4----4--------| 
B  |-------------------------------------------7----7-5~~--|
F# |-------------------------------------------------------|
C# |-------------------------------------------------------|


c# |----------------------------------------------------| 
g# |----------------------------------------------------|
E  |------4-5-4-5-4~-----4-5-4~------4-5-4-5-4~-0-------| 
B  |---5h7------------5h7---------5h7-------------------|
F# |----------------------------------------------------|
C# |----------------------------------------------------|


c# |---------------------------------------------------------------------------------| 
g# |---12~12~12/10~--8~8~8/10~--7~7~7/8~--5~5~5/7~-----------------------------------|
E  |---------------------------------------------------------------------------------| 
B  |---------------------------------------------------------------------------------|
F# |---------------------------------------------------------------------------------|
C# |---------------------------------------------------------------------------------|

      en esta parte se sigue la misma escala, pero desues le agrego una improvisacion...
c# |---------------------------------------------------------|
g# |---10-8-7--8-7-5--7-5----5-------------------------------|
E  |----------------------7----7-5--7-5-4--5-4----4----------| 
B  |-------------------------------------------7----7-5~~----|
F# |---------------------------------------------------------|
C# |---------------------------------------------------------|


c# |-----------------------------------------------| 
g# |---------------5-5-7-5-7-8-7-8-10-8-10/12~-----|
E  |------4-5-7-5-7-7------------------------------| 
B  |---5h7-----------------------------------------|
F# |-----------------------------------------------|
C# |-----------------------------------------------|


c# |--------10--10-12>(13)~----------------| 
g# |---10h12--12---------------------------|
E  |---------------------------------------| 
B  |---------------------------------------|
F# |---------------------------------------|
C# |---------------------------------------|



Forma I-B:


c# |------------------------------0--------------------------------0-0-0---------| 
g# |------------------------------0--------------------------------0-0-0---------|
E  |----------------------5-------0-------------------4---5-5-5----0-0-0---------| 
B  |------7------12-------5-------2-------5-------7---4---5-5-5----2-2-2---------|
F# |------7-------9-------3-------2-------5-------7---2---3-3-3----2-2-2---------|
C# |------5------10---------------0-------3-------5----------------0-0-0---------|



Solo II


c# |-----------0-0-0-0-0-0-------------------| x4
g# |---0-0-0-0/5-5-5-5-5-5~~-----------------|
E  |-----------------------------------------| 
B  |-----------------------------------------|
F# |-----------------------------------------|
C# |-----------------------------------------|


c# |---0-0-0-0--0-0-0-0-0-0-0-0-0-0-0-0-0-0-0-0-0-0-0-0-0-0-0--0--0--0-----| 
g# |---3-3-3-3~-0-0-0-0/5-5-5-5/7-7-7/5-5-5-5/7-7-7-7/8-8-8-8/10-10-10~~---|
E  |-----------------------------------------------------------------------| 
B  |-----------------------------------------------------------------------|
F# |-----------------------------------------------------------------------|
C# |-----------------------------------------------------------------------|


c# |---8-8-8~/7-7-7/8-8-8~/7-7-7/8-8-8~/7-7-7/10-10-10-10~---0-0-0---0-0-0--| 
g# |---------------------------------------------------------0-0-0---0-0-0--|
E  |---------------------------------------------------------0-0-0---0-0-0--| 
B  |---------------------------------------------------------2-2-2---2-2-2--|
F# |---------------------------------------------------------2-2-2---2-2-2--|
C# |---------------------------------------------------------0-0-0---0-0-0--|



Forma I-C:


c# |------------------------------0--------------------------------000-----| 
g# |------------------------------0--------------------------------000-----|
E  |----------------------5-------0-------------------4---5-5-5-5--000-----| 
B  |------7------12-------5-------2-------5-------7---4---5-5-5-5--222-----|
F# |------7-------9-------3-------2-------5-------7---2---3-3-3-3--222-----|
C# |------5------10---------------0-------3-------5----------------000-----|


Forma I-D:

c# |------------------------------0-------------------------------------| 
g# |------------------------------0-------------------------------------|
E  |----------------------5-------0-------------------4---5-------------| 
B  |------7------12-------5-------2-------5-------7---4---5-------------|
F# |------7-------9-------3-------2-------5-------7---2---3-------------|
C# |------5------10---------------0-------3-------5---------------------|



Fin:


c# |---------------------------------------| 
g# |---------------------------------------|
E  |---------------------------------------| 
B  |---------------------------------------|
F# |---------------------------------------|
C# |---5-3-5-5/7-5-7-7/8-------------------|



Orden de la cancion:

Forma I-A X2
Forma II  X2
Forma I-A X4
Forma II  X2
Forma III
Solo I
Forma I-B
Solo II
Forma I-C
Forma I-D
Fin

                                  Tab By Sebastian Oviedo


Disfrutenla!!!
para dudas, consultas o sugerencias kahorseba@hotmail.com
DEDICADA A MIS AMIGOS




link WEBSITE OG BAND:
http://www.myspace.com/coalesce
Добавлено: 29.10.2013
Другие материалы по этой песне:
  • Аккорды и текст

Страница создана 29.10.2013
http://primanota.ru/misc-unsigned-bands/coalesce-blue-collar-lullaby-chords.htm
Привет, Гость.
Предлагаем пройти революционный курс по гитаре.
Подарок от PrimaNota.Ru, забирай!