PrimaNota.ru - самый крупный в мире бесплатный архив песенных текстов, аккордов, табулатур и нот


Misc Unsigned Bands - Chris Farlow - Out Of Time - бас-таба

Регистрация Запомнить меня
Войти через:  Facebook Google Twitter Vk Yandex Mail.ru

Misc Unsigned Bands - Chris Farlow - Out Of Time - бас-таба

Печатать
Просмотров: 44
Out Of Time
Song written by Mick Jagger and Keith Richards, this version by
Chris Farlow (born John Henry Deighton) reached number 1 in the UK
in July 1966. Tab by bass50611. Loads of pauses in the chorus.
Apart from that straight forward.
Any comments its bass254@btinternet.com

Intro:
G|------------------------------------------------------|
D|-4-44---4-44---3-33---3-33----------------------------|
A|----------------------------2-22---2-22---4-44---4-44-|
E|------------------------------------------------------|

Verse:
G|-----------------------------------------------------|
D|-----------------------------------------4-44---4-44-|
A|--------------4-44---4-44---2-22---2-22--------------|
E|-2-22---2-22-----------------------------------------|

Pre-Chorus:
G|------------------------------------------------|
D|------------------4-44--------------------------|
A|------2-22---4-44------2-22---4-44--------------|
E|-2-22-------------------------------2-22---2-22-|

Chorus:
   .            .             .            .               .          .
G|----------8------------8-----------------------------------------5----|
D|------8-11--11-----8-11--11-----------8------------8----------5-8--8--|
A|-9--99--------9--99--------------8-11--11-----8-11--11---6--66------6-|
E|----------------------------9--99--------9--99------------------------|
            .          .             .            .
G|------5--------------------------------------8-----------8----|
D|---5-8--8---------6----------6----------8-11--11-----8-11--11-|
A|-66------------6-9--9-----6-9--9---9--99--------9--99---------|
E|----------7--77------7--77------------------------------------|
   .          .             .             .               .            .
G|-----------------------------------8-----------------------------8-----|
D|---------6----------6----------8-11--11----------8-----------8-11--11--|
A|------6-9--9-----6-9--9---9--99--------------8-11--11---9--99--------9-|
E|-7--77------7--77-----------------------9--99--------------------------|

Drum Break:

Repeat Verse, Pre-Chorus & Chorus:

Solo:                        .
G|-----------------------------|
D|-44444---33333---------44444-|
A|----------------22222--------|
E|-----------------------------|

Chorus 2:
   .            .              .            .               .          .
G|----------8------------8------------------------------------------5----|
D|------8-11--11-----8-11--11-----------8------------8-----------5-8--8--|
A|-9--99--------9--99---------------8-11--11-----8-11--11---6--66------6-|
E|-----------------------------9--99--------9--99------------------------|

            .          .             .            .
G|------5-------------------------------------8------------8----|
D|---5-8--8---------6----------6----------8-11--11-----8-11--11-|
A|-66------------6-9--9-----6-9--9---9--99--------9--99---------|
E|----------7--77------7--77------------------------------------|
   .          .             .              .
G|-----------------------------------8-------------3--------------------|
D|---------6----------6----------8-11--11-------3-6--6---44444444-------|
A|------6-9--9-----6-9--9---9--99----------4--44------------------------|
E|-7--77------7--77--------------------------------------------22222222-|

Outro:
   .            .              .            .               .          .
G|----------8------------8------------------------------------------5----|
D|------8-11--11-----8-11--11-----------8------------8-----------5-8--8--|
A|-9--99--------9--99---------------8-11--11-----8-11--11---6--66------6-|
E|-----------------------------9--99--------9--99------------------------|
            .          .
G|------5--------------------------|
D|---5-8--8---------6----------6---|
A|-66------------6-9--9-----6-9--9-|
E|----------7--77------7--77-------|

REPEAT OUTRO TO FADE/END:
Добавлено: 27.08.2013
Другие материалы по этой песне:
  • Аккорды и текст

Страница создана 27.08.2013
http://primanota.ru/misc-unsigned-bands/chris-farlow-out-of-time-chords.htm
Привет, Гость.
Предлагаем пройти революционный курс по гитаре.
Подарок от PrimaNota.Ru, забирай!