PrimaNota.ru - самый крупный в мире бесплатный архив песенных текстов, аккордов, табулатур и нот


Misc Unsigned Bands - Chris Coraggio - Boys Rule - аккорды и текст

Регистрация Запомнить меня
Войти через:  Facebook Google Twitter Vk Yandex Mail.ru

Misc Unsigned Bands - Chris Coraggio - Boys Rule - аккорды и текст

Печатать
Просмотров: 106
Уроки эстрадного вокала в Санкт-Петербурге
Chris Coraggio - Boys Rule
Misc Unsigned Bands
Boys Rule - Capo 3

Verse 1

C                          Am
I'm so glad I'm a boy

G                           Em      /      G       Am
I cannot express the joy

C
All my clothes fit me fine

Am
By no real work of mine

G              G7           C
I'm so glad I'm a boy

Verse 2

C                            Am
Thank you, Y chromosome

G                                Em     /      G      Am
You make me feel at home

C
Without you, I'd need to

Am
Buy every kind of shoe

G          /          G7     /       C
Thank you, Y chromosome

Prechorus

C                                  Am
And when I might just redecide

C                                           G   /    G7
Another thought comes to my mind

Chorus(offbeats) - repeats twice

C
Boys rule
Girls drool
Boys are smart and
Girls are stupid

G
Boys rule
Girls drool
Boys are smart and
Girls are stupid

Verse 3

C                         Am
No line for the bathroom

G                          Em      /      G       Am
And it's free of perfume

C                     
I can stand up and pee

Am
It's so simple and free

G                 G7       C
No line for the bathroom

Picking:

Every chord except for G7: (numbers signify beats, not fingerings)

-----------------------------------------------------------------------
---------3---------------3---------------------3----------------3----
------2--------------2-------------------2-----------------2---------
--1------------1-------------------1------------------1--------------
------------------------------------------------------------------------
------------------------------------------------------------------------

G to G7 transition: (numbers signify fingerings)

---------------------------------------------------1--------------------
----------0--------------0------------------0-----------0--------------
------0-------------0-----------------0-----------------------0--------
---0-----------0----------------0--------------------------------------
------------------------------------------------------------------------
------------------------------------------------------------------------

Verse 1
Verse 2
Chorus
Verse 3
Chorus x2
Добавлено: 31.03.2015
Другие материалы по этой песне:
  • Аккорды и текст

Страница создана 31.03.2015
http://primanota.ru/misc-unsigned-bands/chris-coraggio-boys-rule-chords.htm
Привет, Гость.
Предлагаем пройти революционный курс по гитаре.
Подарок от PrimaNota.Ru, забирай!