PrimaNota.ru - самый крупный в мире бесплатный архив песенных текстов, аккордов, табулатур и нот


Misc Unsigned Bands - Chase Atlantic - Roxanne - таба

Регистрация Запомнить меня
Войти через:  Facebook Google Twitter Vk Yandex Mail.ru

Misc Unsigned Bands - Chase Atlantic - Roxanne - таба

Печатать
Просмотров: 93
Уроки эстрадного вокала в Санкт-Петербурге
E|------------------------------------------------------------------|
B|------------------------------------------------------------------|
G|------------------------------------------------------------------|
D|------------------------------------------------------------------|
A|------------------------------------------------------------------|
E|--3--3--5-----55--7--7--10---10~~~3-------------------------------| intro/whole song

{ALTERNATE SLIGHTLY ADVANCED VERSION}[BEWARE OF THE BEGINNER CRAMPS LOL]

Feel free to make power chords out of this/ Just add 2 fingers 2 frets up on the A and D string.
Like this!!! :)


For 3(G note) we will put our ring on the A string and our pinky on the D! Now here is a simple diagram of what
it should look like! :D And go up 2 frets for every note. I will make a little guide below good luck.
Remember to only strum the top 3 if you play it this way. 

{POWER CHORD VERSION} Just plug this into the tab at the top :)
E|------------------------------------------------------------------|
B|------------------------------------------------------------------|
G|------------------------------------------------------------------|
D|------5-----------------------------------------------------------|
A|------5-----------------------------------------------------------|
E|------3-----------------------------------------------------------|

E|------------------------------------------------------------------|
B|------------------------------------------------------------------|
G|------------------------------------------------------------------|
D|------7-----------------------------------------------------------|
A|------7-----------------------------------------------------------|
E|------5-----------------------------------------------------------|

E|------------------------------------------------------------------|
B|------------------------------------------------------------------|
G|------------------------------------------------------------------|
D|------9-----------------------------------------------------------|
A|------9-----------------------------------------------------------|
E|------7-----------------------------------------------------------|

E|------------------------------------------------------------------|
B|------------------------------------------------------------------|
G|------------------------------------------------------------------|
D|------12----------------------------------------------------------|
A|------12----------------------------------------------------------|
E|------10----------------------------------------------------------|
Добавлено: 24.03.2016
Другие материалы по этой песне:
  • Аккорды и текст

Страница создана 24.03.2016
http://primanota.ru/misc-unsigned-bands/chase-atlantic-roxanne-chords.htm
Привет, Гость.
Предлагаем пройти революционный курс по гитаре.
Подарок от PrimaNota.Ru, забирай!