PrimaNota.ru - самый крупный в мире бесплатный архив песенных текстов, аккордов, табулатур и нот


Misc Unsigned Bands - Charlieissocoollike - In The Absense Of Christmas - таба

Регистрация Запомнить меня
Войти через:  Facebook Google Twitter Vk Yandex Mail.ru

Misc Unsigned Bands - Charlieissocoollike - In The Absense Of Christmas - таба

Печатать
Просмотров: 31
Sorry if this isn't excellent, but it sounds ok to me. (My first tab)

Intro -
Guitar 1
E-77777777-1010101010101010-------|
B-88888888- 8 8 8 8 8 8 8 8-------|
G-99999999- 9 9 9 9 9 9 9 9-------| Go straight into verse chords after this.
D---------------------------------|
A---------------------------------|
E---------------------------------|

Melodica
E-----------------------------------------------------------------|
B-8-10-12-10-8-10-8-7-5--(pause)--8-10-12-10-8-10-12-15-13-12-----|
G-----------------------------------------------------------------|
D-----------------------------------------------------------------|
A-----------------------------------------------------------------|
E-----------------------------------------------------------------|

Chords:
Verse - Em - C - D - C
Chorus - C D G D C, C D Em

Guitar 2 -
Playing constantly along with the chords.
Verse
E----7---7---7-------------------------|
B-----8---8---8------------------------|keep repeating for whole of verse.
G------9---9---------------------------|
D--------------------------------------|
A--------------------------------------|
E--------------------------------------|

Chorus:
(I think this bit could be wrong?)
E---7-5-1-3-5-7--------|
B---8-5-1-3-5-8--------|
G---9-6-2-4-6-9--------|figure out the strumming pattern for yourself.
D-----7-3-5-7----------|
A----------------------|
E----------------------|

That's the jist of it, and mistakes just tell me and i will change it.
I'll add the other melodica for the verses and chorus later. I can't be bothered to 
it out right now.
Добавлено: 06.01.2014
Другие материалы по этой песне:
  • Аккорды и текст

Страница создана 06.01.2014
http://primanota.ru/misc-unsigned-bands/charlieissocoollike-in-the-absense-of-christmas-chords.htm
Привет, Гость.
Предлагаем пройти революционный курс по гитаре.
Подарок от PrimaNota.Ru, забирай!