PrimaNota.ru - самый крупный в мире бесплатный архив песенных текстов, аккордов, табулатур и нот


Misc Unsigned Bands - Charlieissocoollike - Blunty We Love You - таба

Регистрация Запомнить меня
Войти через:  Facebook Google Twitter Vk Yandex Mail.ru

Misc Unsigned Bands - Charlieissocoollike - Blunty We Love You - таба

Печатать
Просмотров: 52
Blunty, we love you.


Standard tuning.

Intro

|---------------|---------------|---------------|---------------|
|-----1----1----|-----1----1----|-----1----1----|-----1----1----|
|---0----0----0-|---0----0---0--|---0----0----0-|---0----0----0-|
|---------------|---------------|-2----2----2---|-3----3----2---|
|-3----3----3---|-2----3----2---|---------------|---------------|
|---------------|---------------|---------------|---------------|


|---------------|---------------|---------------|---------------|
|-----1----1----|-----1----1----|-----1----1----|---------------|
|---0----0----0-|---0----0---0--|---0----0----0-|---------------|
|---------------|---------------|-2---------2---|-3-------------|
|-3----3----3---|-2----3----2---|------0--------|---------------|
|---------------|---------------|---------------|---------------|


Verse 1 is pretty much the same, just simpler.

|---------------|---------------|---------------|---------------|
|-----1----1----|-----1----1----|-----1----1----|-----1----1----|
|---0----0----0-|---0----0---0--|---0----0----0-|---0----0----0-|
|---------------|---------------|-2----2----2---|-3----3----2---|
|-3----3----3---|-2----3----2---|---------------|---------------|
|---------------|---------------|---------------|---------------|


|---------------|---------------|---------------|---------------|
|-----1----1----|-----1----1----|-----1----1----|-----1----1----|
|---0----0----0-|---0----0---0--|---0----0----0-|---0----0----0-|
|---------------|---------------|-2----2----2---|-3----3----2---|
|-3----3----3---|-2----2----2---|---------------|---------------|
|---------------|---------------|---------------|---------------|


|---------------|---------------|---------------|---------------|
|-----1----1----|-----1----1----|-----1----1----|-----1----1----|
|---0----0----0-|---0----0---0--|---0----0----0-|---0----0----0-|
|---------------|---------------|-2----2----2---|-3----3----2---|
|-3----3----3---|-2----3----2---|---------------|---------------|
|---------------|---------------|---------------|---------------|


|---------------|---------------|---------------|---------------|
|-----1----1----|-----1----1----|-----1----1----|---------------|
|---0----0----0-|---0----0---0--|---0----0----0-|---------------|
|---------------|---------------|-2----2----2---|-3-------------|
|-3----3----3---|-2----2----2---|---------------|---------------|
|---------------|---------------|---------------|---------------|


Verse 2 is chords. As I don
Добавлено: 12.12.2013
Другие материалы по этой песне:
  • Аккорды и текст

Страница создана 12.12.2013
http://primanota.ru/misc-unsigned-bands/charlieissocoollike-blunty-we-love-you-chords.htm
Привет, Гость.
Предлагаем пройти революционный курс по гитаре.
Подарок от PrimaNota.Ru, забирай!