PrimaNota.ru - самый крупный в мире бесплатный архив песенных текстов, аккордов, табулатур и нот


Misc Unsigned Bands - Casting Quarters - Promise - бас-таба

Регистрация Запомнить меня
Войти через:  Facebook Google Twitter Vk Yandex Mail.ru

Misc Unsigned Bands - Casting Quarters - Promise - бас-таба

Печатать
Просмотров: 65
                              Promise-Casting Quarters
  Tabbed by:Anthony
E-mail:danwalter@verizon.net

Tuning:CGCF

intro

G|---------------------------------------------------------------------------|
D|---------------------------------------------------------------------------|
A|---------------------------------------------------------------------9-----|
E|12-1212-1212-12b13-12-1212-1212-1112-12-1212-1212-12b13-12-1212-1212--12---|

G|---------------------------------------------------------------------------|
D|---------------------------------------------------------------------------|
A|---------------------------------------------------------------------------|
E|12-1212-1212-12b13-12-1212-1212-1112-12-1212-1212-12b13-12-1212-1212-12x7--|

G|---------------------------------------------------------------------------|
D|---------------------------------------------------------------------------|
A|---------------------------------------------------------------------------|
E|12-1212-1212-12b13-12-1212-1212-1112-12-1212-1212-12b13-12-1212-1212-------|

G|---------------------------------------------------------------------------|
D|---------------------------------------------------------------------------|
A|---------------------------------------------------------------------------|
E|12-1212-1212-------------12-1212-1212-----12/------------------------------|

verse 1

G|---------------------------------------------------------------------------|
D|---------------------------------------------------------------------------|
A|---------------------------------------------------------------------------|
E|0----0----000--00000000-5----5----555--55555555-8888-8-8-889p8-889p8-------|

G|---------------------------------------------------------------------------|
D|---------------------------------------------------------------------------|
A|-------------------------4-------------------------------------------------|
E|44447p4-447p4-447p4-447p4--------------------------------------------------|

pre chorus

G|-----------------------------------------------------------------------------------|
D|-----------------------------------------------------------------------------------|
A|-----------------------------------------------------------------------------------|
E|00000--00-0-00-0-00000--00-0-00-0-11111--11-1-11-1-11111-11-1-11-1-00000-00-0-00-0-|

break-
chorus

G|-----------------------------------------------------------------------|
D|-----------------------------------------------------------------------|
A|-----------------------------------------------------------------------| x2
E|55555555-55555555-77777777-77777777--4--4-444--4--440--0--000--0-00-0--|



| /  slide up
| \  slide down
| h  hammer-on
| p  pull-off
| ~  vibrato
| +  harmonic
| x  Mute note
===============================================================================
Добавлено: 10.08.2013
Другие материалы по этой песне:
  • Аккорды и текст

Страница создана 10.08.2013
http://primanota.ru/misc-unsigned-bands/casting-quarters-promise-chords.htm
Привет, Гость.
Предлагаем пройти революционный курс по гитаре.
Подарок от PrimaNota.Ru, забирай!