PrimaNota.ru - самый крупный в мире бесплатный архив песенных текстов, аккордов, табулатур и нот


Misc Unsigned Bands - Cameron Defaria - Always - аккорды и текст

Регистрация Запомнить меня
Войти через:  Facebook Google Twitter Vk Yandex Mail.ru

Misc Unsigned Bands - Cameron Defaria - Always - аккорды и текст

Печатать
Просмотров: 66
Cameron Defaria - Always
Misc Unsigned Bands
Song Title: Always
Artist: Cameron DeFaria
Tabbed By: Megan
Tuning: Standard EBGDAE
------------------------------------------------------------------------|E
------------------------------------------------------------------------|B
--------------------------------------10---10---10---10---9---9---9---9-|G
--10---10---10---10---9---9---9---9-------------------------------------|D
------------------------------------------------------------------------|A
8----8----8----8----8---8---8---8---8----8----8----8----8---8---8---8---|E 4x's
You know you are, surrounded by yourself             Because it hurts, you stay inside your shell
                      A*                         A#*              F
You've been lost forever and couldn't even tell

                              C
I'll take away the reason you're so sad
                            Em
I'll bring back the hope you never had
                   F
You're not alone, I'll be your home.
        F
Always
                            C
The pain in your heart will never last
                         Em
The fire in your soul will die fast
                   F
You're not alone, I'll be your home.
C* C* G* G* F* F* 
                                Always
------------------------------------------------------------------------|E
------------------------------------------------------------------------|B
--------------------------------------10---10---10---10---9---9---9---9-|G
--10---10---10---10---9---9---9---9-------------------------------------|D
------------------------------------------------------------------------|A
8----8----8----8----8---8---8---8---8----8----8----8----8---8---8---8---|E 3x's
You try to stand, revive your inner strength         Just take my hand, I'll get you through today
                      A                A#                      F
You've been lost forever and need to hear me say


                              C
I'll take away the reason you're so sad
                            Em
I'll bring back the hope you never had
                   F
You're not alone, I'll be your home.
        F
Always
                            C
The pain in your heart will never last

                         Em
The fire in your soul will die fast
                   F
You're not alone, I'll be your home.
C* C* G* G* F* F* 

A                                        F
   The wound inside your heart is open
A                                        G                       F
   But you don't know the friend you've got inside
 G
Hey....Yeah...

                              C
I'll take away the reason you're so sad
                            Em
I'll bring back the hope you never had
                   F
You're not alone, I'll be your home.

                              C
I'll take away the reason you're so sad
                            Em
I'll bring back the hope you never had
                   F
You're not alone, I'll be your home.
        F
Always
                            C
The pain in your heart will never last
                         Em
The fire in your soul will die fast
                   F
You're not alone, I'll be your home.
C* C* G* G* F* F* 
                                Always

------------------------------------------------------------------------|E
------------------------------------------------------------------------|B
--------------------------------------10---10---10---10---9-------------|G
--10---10---10---10---9---9---9---9-------------------------------------|D
------------------------------------------------------------------------|A
8----8----8----8----8---8---8---8---8----8----8----8----8---------------|E
You know you are, surrounded by yourself.
Добавлено: 08.11.2013
Другие материалы по этой песне:
  • Аккорды и текст

Страница создана 08.11.2013
http://primanota.ru/misc-unsigned-bands/cameron-defaria-always-chords.htm
Привет, Гость.
Предлагаем пройти революционный курс по гитаре.
Подарок от PrimaNota.Ru, забирай!