PrimaNota.ru - самый крупный в мире бесплатный архив песенных текстов, аккордов, табулатур и нот


Misc Unsigned Bands - Calling All Cars - Worlds Collide - таба

Регистрация Запомнить меня
Войти через:  Facebook Google Twitter Vk Yandex Mail.ru

Misc Unsigned Bands - Calling All Cars - Worlds Collide - таба

Печатать
Просмотров: 52
-------------------------------------------------------------------------------
                             Worlds Collide - Calling All Cars
-------------------------------------------------------------------------------
Tabbed by: AshSchecter
Email: Ash_d123@hotmail.com

I just got this song before,the new song from Calling All Cars. Bear with me if the tab 
is a little sketchy. I'll also include lyrics, as I have figured out most of them (you 
won't find them on any lyric sites).

Tuning: The tuning for this song is half a step down, and the top string is half a step 
down from D. So if you're having trouble, just tune your guitar into drop D (just the 
top string, down a step) then tune all the strings half a step down (including the top string).


Intro: Slowly bend the 5th fret slowly to match the sound of 6, and pick about 12 times? 
Then release the bend back to 5. Repeat.

We broke our chemistry in two.
An empty picture frame that slipped right through.
So i'll just stay here, wait a while.
And i'll crawl, through the night with that look in my eyes, so!

Lead: 0:00 - 0:37
Eb|-----------------------------------------------------------------|
Bb|---5b6---6x12---6br----------------------------------------------|
Gb|-----------------------------------------------------------------|
Db|-----------------------------------------------------------------|
Ab|-----------------------------------------------------------------|
Db|-----------------------------------------------------------------|

Rhythm: Clean, you can either palm mute this or strum it.
Eb|-----------------------------------------------------------------|
Bb|-----------------------------------------------------------------|
Gb|--7--------------------------------------------------------------|
Db|--7-x3---8------5------------------------------------------------|
Ab|--5------8-x3---5-x6---------------------------------------------|
Db|---------8------5------------------------------------------------|

Is this love a conviction? This love...

Pre-Chorus:
Eb|-----------------------------------------------------------------|
Bb|-----------------------------------------------------------------|
Gb|----1010--13-13-----1010--13-13---1010--13-13---12---------------| x2
Db|--0-x-x-h-x--x--0-0-x-x-h-x--x--0-x-x-h-x--x----x-x8-------------|
Ab|--0-8-8---11-11-0-0-8-8---11-11-0-8-8---11-11---10---------------|
Db|--0-------------0-0-------------0--------------------------------|

We sit back as we watch our worlds collide!
They're inter-fading and they all decide.

Chorus:
Eb|-----------------------------------------------------------------|
Bb|-----------------------------------------------------------------|
Gb|-----------------------------------------------------------------|
Db|--3-----8-----0--------------------------------------------------|
Ab|--3-----8-----0--------------------------------------------------|
Db|--3-----8-----0--------------------------------------------------|

The night has overdoubted you.
Another day is pulling through.

Eb|-----------------------------------------------------------------|
Bb|-----------------------------------------------------------------|
Gb|-----------------------------------------------------------------|
Db|--3-----5-----0-----8--------------------------------------------|
Ab|--3-----5-----0-----8--------------------------------------------|
Db|--3-----5-----0-----8--------------------------------------------|

We sit back as we watch our worlds collide!

Eb|-----------------------------------------------------------------|
Bb|-----------------------------------------------------------------|
Gb|-----------------------------------------------------------------|
Db|--3-----5--------------------------------------------------------|
Ab|--3-----5--------------------------------------------------------|
Db|--3-----5--------------------------------------------------------|

Post-Chorus:
Eb|-----------------------------------------------------------------|
Bb|-----------------------------------------------------------------|
Gb|----1010--13-13------10--13-13-----------------------------------|
Db|--0-x-x-h-x--x--0-0--x-h-x--x------------------------------------|
Ab|--0-8-8---11-11-0-0--8---11-11-----------------------------------|
Db|--0-------------0-0----------------------------------------------|

I'm not a victim to your touch.
Given the chance it could be pushed too far but,
the smell of burning in the air.
Means it's up, this is tough and i'm so f@#&ing over it.

2nd verse: Do exactly the same as the first verse, except when he starts singing 'means 
it's up' play this.
Eb|--------------------------------9~-------------------------------|
Bb|--10b11--(the same way as 5b6)-----------------------------------|
Gb|-----------------------------------------------------------------|
Db|-----------------------------------------------------------------|
Ab|-----------------------------------------------------------------|
Db|-----------------------------------------------------------------|

Repeat pre-chorus, chorus and post-chorus.

Solo:
Eb|-----------------------------------------------------------------|
Bb|----------------------15b17b15--13-------------------------------|
Gb|-----------------13---------------13-----13---11h13--------------|
Db|-----------6~--12--12----------------10-----10------12--7--8--7~-|
Ab|--5~--8~---------------------------------------------------------|
Db|-----------------------------------------------------------------|

We have been told, lights go out, ask within again. (Not sure about this)
We broke our chemisty. We broke our love for you.

Bridge: Hard to work out this bit, I know the rhythm is playing something in there, but 
this is what the bass is doing.
Eb|-----------------------------------------------------------------|
Bb|-----------------------------------------------------------------|
Gb|-----------------------------------------------------------------|
Db|-----------------------------------------------------------------|
Ab|-----------------------------------------------------------------|
Db|---0x16-----3x16-----7x16-----8x16-------------------------------|

You could play this (in time with the 'we have been told' singing part)
Eb|-----------------------------------------------------------------|
Bb|-----------------------------------------------------------------|
Gb|--10~--10---12---9~---9---7---9~--9---9---10---9---7~------------|
Db|-----------------------------------------------------------------|
Ab|-----------------------------------------------------------------|
Db|-----------------------------------------------------------------|

Pre-Chorus:
Eb|-----------------------------------------------------------------|
Bb|-----------------------------------------------------------------|
Gb|----------------------12-------------------13--------------------|
Db|--0-----0-0-----0-----x--(slowly bend to)--x---------------------|
Ab|--0-----0-0-----0-----10-------------------11--------------------|
Db|--0-----0-0-----0------------------------------------------------|

Repeat chorus.

Outro:
Eb|-----------------------------------------------------------------|
Bb|-----------------------------------------------------------------|
Gb|----1010--13-13-----1010--13-13---1010--13-13--------------------|
Db|--0-x-x-h-x--x--0-0-x-x-h-x--x--0-x-x-h-x--x----10---------------|
Ab|--0-8-8---11-11-0-0-8-8---11-11-0-8-8---11-11---10-x8------------|
Db|--0-------------0-0-------------0---------------10---------------|

Eb|-----------------------------------------------------------------|
Bb|-----------------------------------------------------------------|
Gb|----1010--13-13-----1010--13-13---1010--13-13---12---------------| x2
Db|--0-x-x-h-x--x--0-0-x-x-h-x--x--0-x-x-h-x--x----x-x8-------------|
Ab|--0-8-8---11-11-0-0-8-8---11-11-0-8-8---11-11---10---------------|
Db|--0-------------0-0-------------0--------------------------------|

End on:
Eb|-----------------------------------------------------------------|
Bb|-----------------------------------------------------------------|
Gb|-----------------------------------------------------------------|
Db|--0~-------------------------------------------------------------|
Ab|--0~-------------------------------------------------------------|
Db|--0~-------------------------------------------------------------|

Hope this helped guys!

************************************

| /   slide up
| \   slide down
| h   hammer-on
| p   pull-off
| ~   vibrato
| +   harmonic
| x   Mute note
| b   Bend
| pb  Pre-bend
| br  Bend release
| pbr Pre-bend release
| brb Bend release bend

************************************
Добавлено: 15.06.2013
Другие материалы по этой песне:
  • Аккорды и текст

Страница создана 15.06.2013
http://primanota.ru/misc-unsigned-bands/calling-all-cars-worlds-collide-chords.htm
Привет, Гость.
Предлагаем пройти революционный курс по гитаре.
Подарок от PrimaNota.Ru, забирай!