PrimaNota.ru - самый крупный в мире бесплатный архив песенных текстов, аккордов, табулатур и нот


Misc Unsigned Bands - Bright Idea - Such Great Heights - таба, видео

Регистрация Запомнить меня
Войти через:  Facebook Google Twitter Vk Yandex Mail.ru

Misc Unsigned Bands - Bright Idea - Such Great Heights - таба, видео

Печатать
Просмотров: 47
Уроки эстрадного вокала в Санкт-Петербурге
-------------------------------------------------------------------------------
                  Such Great Heights - Bright(Idea)
-------------------------------------------------------------------------------
Tabbed by:Lead Guitarist Dennis Dorgan
Email: repomanerbanner@hotmail.com add me on msn, I don't care
Bright(Idea)'s website: http://myspace.com/brightideasurl
Tuning:Standard EADGBe

e|---------------------------------------------------------------------------|
B|---------------------------------------------------------------------------|
G|---------------------------------------------------------------------------|
D|--7----7--------------7-----7------------------------5--5------------------|
A|--5----5--------------7-----7------------------------5--5------------------|
E|----------------------5-----5------------------------3--3------------------|
       x14                   x14                        x28
PM|-|             PM|-|
I, I'm thinking it's a sign, that the freckles in our eyes, are mirrior
e|-----------------------------------------------------------------------------|
B|-----------------------------------------------------------------------------|
G|-----------------------------------------------------------------------------|
D|----------------------------------------------------7---7------7-7-----------|
A|----------------------------------------------------5---5------7-7-----------|
E|---------------------------------------------------------------5-5-----------|
                                                         x14       x14
PM|-|
images and when we kiss they're perfectly aligned, and I have to speculate
e|---------------------------------------------------------------------------|
B|---------------------------------------------------------------------------|
G|---------------------------------------------------------------------------|
D|-------------------5---5---------------------------------------------------|
A|-------------------5---5---------------------------------------------------|
E|-------------------3---3---------------------------------------------------|
                        x28
that God himself to make, us into corresponding shapes like puzzle pieces from the clay,
true, it may seem like a, stretch but it's thoughts like this that, catch my troubled 
when you're away when I am missing you to death
when you, are out there on the road, for several weeks at, shows and when you scan the 
I hope this song will guide you home

Repeat that same rhythm up until the chorus

 CHORUS
--------

e|---------------------------------------------------------------------------|
B|---------------------------------------------------------------------------|
G|---------------------------------------------------------------------------|
D|-----7---------------------------7-------------------------5---------------|
A|-----5---------------------------7-------------------------5---------------|
E|---------------------------------5-------------------------3---------------|
      x7                          x7                        x14
    They will see us waving from, such great heights,  come down now they'll say
but everything looks perfect from far away, come down now, but we'll stay

 VERSE
-------

I, tried my best to leave, this all on your machine, but the persistant beat it sounded 
upon the sending
and that, frankly will not fly, you will hear the shrillest highs, and lowest lows with 
windows down, when this is guiding you home

 CHORUS
--------

They will see us waving from, such great heights come down now, they'll say
but everything looks perfect from, far away come down now, but we'll stay

 GUITAR SOLO
-------------

e|---------------------------------------------------------------------------|
B|---6-6-6-6-6-6-666p5-----5-5-5-5-5-5-5h6-3----3-3-3-3-3-3-3p1-1-1----------|
G|---------------------------------------------------------------------------|
D|---------------------------------------------------------------------------|
A|---------------------------------------------------------------------------|
E|---------------------------------------------------------------------------|
Repeat Four times then go back into chorus

| ,  chord change
| /  slide up
| \  slide down
| h  hammer-on
| p  pull-off
| ~  vibrato
| +  harmonic
| x  Mute note
===============================================================================
Добавлено: 06.01.2014
Другие материалы по этой песне:
  • Аккорды и текст

Страница создана 06.01.2014
http://primanota.ru/misc-unsigned-bands/bright-idea-such-great-heights-chords.htm
Привет, Гость.
Предлагаем пройти революционный курс по гитаре.
Подарок от PrimaNota.Ru, забирай!