PrimaNota.ru - самый крупный в мире бесплатный архив песенных текстов, аккордов, табулатур и нот


Misc Unsigned Bands - Brian Faye And His Orchestra - Pick Of The Pops Theme - бас-таба

Регистрация Запомнить меня
Войти через:  Facebook Google Twitter Vk Yandex Mail.ru

Misc Unsigned Bands - Brian Faye And His Orchestra - Pick Of The Pops Theme - бас-таба

Печатать
Просмотров: 60
Pick Of The Pops Theme
(At The Sign Of The Swinging Cymbal
The original presenter was the late Alan (Fluff)Freeman (Not Arf)
(Greetings Pop Pickers). Fluff used this score for Top 20 rundown
Original score by Brian Faye and his Orchestra.
Tab by bass50611.  What a great tune.  Mainly a
walking bass line but its extremely quick in the first part
of the bridge.  Any comments its bass254@btinternet.com

Intro Part 1:
G|---5-3-------------|
D|-5-----5-4-5---2---|
A|-----------------4-|
E|-------------------|

Intro Part 2:(PLAY THIS BIT x 4)
G|--------|
D|---2--5-|
A|-3------|
E|--------|

Verse: (PLAY THIS x 8)
G|--------|
D|---2--5-|
A|-3------|
E|--------|

G|--------------------|
D|--------------------|
A|-3-4-5-6-7---8-9-10-|
G|--------------------|

REPEAT INTRO Parts 1,2 and VERSE:

REPEAT INTRO parts 1 & 2:

Bridge:
G|--2345432--------------------2345432---------------------7-10----7-10-|
D|-3----------2-5-2---2-5-2---3----------2-5-2---2-5-2---88------88-----|
A|-----------3-------3------------------3-------3-----------------------|
E|----------------------------------------------------------------------|
                   .     .     .   .   .   .
G|--------------------------------------------------------|
D|----8-------8--------------------------------5-3---5-3--|
A|-6-9-9---6-9-9---6---6-4---4-3---2---1---1------5-----5-|
E|--------------------------------------------------------|

REPEAT INTRO PARTS 1,2 & VERSE x2

Outro:
G|---5-3-------------|
D|-5-----5-4-5---2---|
A|-----------------4-|
E|-------------------|

G|---------------------------------------------------------------|
D|---2-5----2-5----2-5----2-5----2-5----2-5-----5----------------|
A|-3------3------3------3------3------3-------3---3-4---33-1-1-3-|
E|----------------------------------------------------------3----|
Добавлено: 02.10.2013
Другие материалы по этой песне:
  • Аккорды и текст

Страница создана 02.10.2013
http://primanota.ru/misc-unsigned-bands/brian-faye-and-his-orchestra-pick-of-the-pops-theme-chords.htm
Привет, Гость.
Предлагаем пройти революционный курс по гитаре.
Подарок от PrimaNota.Ru, забирай!