PrimaNota.ru - самый крупный в мире бесплатный архив песенных текстов, аккордов, табулатур и нот


Misc Unsigned Bands - Brainwave- Slip Away - бас-таба

Регистрация Запомнить меня
Войти через:  Facebook Google Twitter Vk Yandex Mail.ru

Misc Unsigned Bands - Brainwave- Slip Away - бас-таба

Печатать
Просмотров: 60
-------------------------------------------------------------------------------
                             slip away - Brainwave
------------------------------------------------------------------
Tabbed by:Garry 
E-mail: Sirgarryjoe@gmail.com

Tuning:standard
{verse  Riff}                                        (intro befor verse riff)
G|------------------------------------------------  -------------------------|
D|------------------------------------------------  -------------------------|
A|-7-777\5\4--444/5/9-999\7\5-555\6\7------------(x8)------------------------|
E|------------------------------------------------  ------------875----------|
{pre riff}
G|----------------------------------------l--------------------------------|
D|-7 77 77\3\2 22 222 3 33 333------------l7 77 77\3\2 22 222 3 33 333-----|
A|-----------------------------33-----{x2)l--------------------------------|
E|-------------------------------00-------l---------------------------1/33 3/44 4/5|
{chorus riff}
G|--------------------------  -----------------------------------------------|
D|----3/55-66-7----7-55--3--  ---------------------------------------333----- 
A|-5-----------------------(x2)----3333/5555\333------------3333/5555--------|
E|--------------------------  -5555---------------------5555-----------------|
{chorus riff}
G|-----------------------------------------------------------------------  --|
D|-----------------------------------------------3/55--66 7---7-55--3----  --|
A|-----3333/5555\3333--23 23 23 2 1111/333-----5------------------------{x2}-|
E|-5555------------------------------------------------------------------  --|
verse 2 =)pre =)chorus    {solo/ backing riff}
G|------------------------------------------------------------  -------------|
D|-----------------------6-4 2222---4444---66--44-3----------(x6)------------|
A|-4444----64--2-1111--21-------------------------------------  -------------|
E|------------------------------------------------------------  -------------|
Bridge
G|---------------------------------------------------------------------------|
D|---------------------------------------------------------------------------|
A|---333-0---3330--(x2)----------33333--22222--555555555555555---------------|
E|--5------0--------------55555----------------------------------------------|

G|---------------------------------------------------------------------------|
D|---------------------------------------------------------------------------|
A|---------------------------------------------------------------------------|
E|---------------------------------------------------------------------------|

G|---------------------------------------------------------------------------|
D|---------------------------------------------------------------------------|
A|---------------------------------------------------------------------------|
E|---------------------------------------------------------------------------|

G|---------------------------------------------------------------------------|
D|---------------------------------------------------------------------------|
A|---------------------------------------------------------------------------|
E|---------------------------------------------------------------------------|


| /  slide up                       song format:
| \  slide down                     intro,verse,pre chorus,verse,pre,chorus      
| h  hammer-on                      solo/backing riff,bridge,double chorus.
| p  pull-off
| ~  vibrato
| +  harmonic
| x  Mute note
===============================================================================
Добавлено: 30.01.2014
Другие материалы по этой песне:
  • Аккорды и текст

Страница создана 30.01.2014
http://primanota.ru/misc-unsigned-bands/brainwave-slip-away-chords.htm
Привет, Гость.
Предлагаем пройти революционный курс по гитаре.
Подарок от PrimaNota.Ru, забирай!