PrimaNota.ru - самый крупный в мире бесплатный архив песенных текстов, аккордов, табулатур и нот


Misc Unsigned Bands - The Bon Bons - Bruce Wayne - аккорды и текст

Регистрация Запомнить меня
Войти через:  Facebook Google Twitter Vk Yandex Mail.ru

Misc Unsigned Bands - The Bon Bons - Bruce Wayne - аккорды и текст

Печатать
Просмотров: 53
The Bon Bons - Bruce Wayne
Misc Unsigned Bands
https://m.facebook.com/The-Bon-bons-489679414518441/

https://www.youtube.com/watch?v=pCq9woQkPpM&list=PLuZ5MN7dStacCOYYrB_NWBPOocNpQCylY&index=1

A5  D5
A5  D5
A5  D5
E5    

A5  D5
A5  D5
A5  D5
E5    

        A5     D5
Bruce Wayne!
        A5     D5
Bruce Wayne!
        A5     D5
Bruce Wayne!
E5    
He's the Batman!

        A5     D5
Bruce Wayne!
        A5     D5
Bruce Wayne!
        A5     D5
Bruce Wayne!
E5    
He's petting Alfred!

        A5     D5
Bruce Wayne!
        A5     D5
Bruce Wayne!
        A5     D5
Bruce Wayne!
E5    
He's touching Robin! Come on!

e|---------------------------------------------------------------------------|
B|--------------------------------11--11--11--11--11--11--------5--8--5--8---|
G|------------------------------12--12--12--12--12--12----5--7---------------|
D|-------------5--7^9---7^9--7-----------------------------------------------|
A|----4--5--7----------------------------------------------------------------|
E|-5-------------------------------------------------------------------------|

e|---------------------------------------------------------------------------|
B|-8--8--8--5----------------------------------------------------------------|
G|-------------7--5-----5------7^9--7^9--7^9--7^9----------------------------|
D|-------------------7-----7-------------------------------------------------|
A|---------------------------------------------------------------------------|
E|---------------------------------------------------------------------------|

e|---------------------------------------------------------------------------|
B|---------------------------------------------------------------------------|
G|-5--7--5--7--5--7--5--7--5--7--5--7--5--7--5--7--5--7--5--7--5--7--5--7----|
D|---------------------------------------------------------------------------|
A|---------------------------------------------------------------------------|
E|---------------------------------------------------------------------------|

e|---------------------------------------------------------------------------|
B|---------------------------------------------------------------------------|
G|---------------------------------------------------------------------------|
D|---------------------------------------------------------------------------|
A|-7--5--4-------------------------------------------------------------------|
E|----------7--5-------------------------------------------------------------|

(During solo, rhythm guitar plays riff three times)

A5
Bruce to the Wayne to the Bruce the Wayne the Wayne
A5
Bruce to the Wayne to the Bruce the Wayne the Wayne
D5
Bruce to the Wayne to the Bruce the Wayne the Wayne
D5      D5         D5  D5   D5
Bruce Wayne, He's not from Kent!



        A5     D5
Bruce Wayne!
        A5     D5
Bruce Wayne!
        A5     D5
Bruce Wayne!
E5    
Bruce Wayne!

        A5     D5
Bruce Wayne!
        A5     D5
Bruce Wayne!
        A5     D5
Bruce Wayne!
E5    
Bruce Wayne!

        A5     D5
Bruce Wayne!
        A5     D5
Bruce Wayne!
        A5     D5
Bruce Wayne!
E5    
But what about the penguin?


        A5     D5
Penguin!
        A5     D5
Penguin!
        A5     D5
Penguin!
E5             A5 
Penguiiiiiiin!

Добавлено: 21.03.2016
Другие материалы по этой песне:
  • Аккорды и текст

Страница создана 21.03.2016
http://primanota.ru/misc-unsigned-bands/bon-bons-bruce-wayne-chords.htm
Привет, Гость.
Предлагаем пройти революционный курс по гитаре.
Подарок от PrimaNota.Ru, забирай!