PrimaNota.ru - самый крупный в мире бесплатный архив песенных текстов, аккордов, табулатур и нот


Misc Unsigned Bands - Bodyboarders - Without Words - аккорды и текст

Регистрация Запомнить меня
Войти через:  Facebook Google Twitter Vk Yandex Mail.ru

Misc Unsigned Bands - Bodyboarders - Without Words - аккорды и текст

Печатать
Просмотров: 47
Bodyboarders - Without Words
Misc Unsigned Bands
Australia,Victoria, Wade(guitar one) And Morgan(guitar two) are the writers and players.
'Without Words', By The Bodyboarders
Band: The Bodyboarders
Song: 'Without Words'
Tuning: Standard E.B.G.D.A.E

(Intro)

E|--------------------------------------------------------------------|
B|--------------------------------------------------------------------|
G|--------------------------------------------------------------------|
D|-5-5-5-5-5-5-5-5--5-5-5-5-5-5-5-5--2-2-2-2-2-2-2-2------------------|
A|-3-3-3-3-3-3-3-3--2-2-2-2-2-2-2-2--X-X-X-X-X-X-X-X--5-5-5-5-5-5-5-5-|
E|-----------------------------------0-0-0-0-0-0-0-0--3-3-3-3-3-3-3-3-|

(Riff one)

E|---------------------------------------------------------------|
B|---------------------------------------------------------------|
G|---------------------------------------------------------------|
D|PM.........--PM.........--PM.................................--|
A|--7-7-7--7-7-7--7-7-7-7-7-7-7----------------------------------|
E|--5-5-5--5-5-5--5-5-5-5-5-5-5----------------------------------|

(Verse One)

E|--------------------------------------------------------------------|
B|--------------------------------------------------------------------|
G|--------------------------------------------------------------------|
D|--------------------------------------------------------------------|
A|-7-7-/-10-10--9-9-9--7--7-7-7-7-7-7-7-/-10-10--7--7-7-7-7-7-7-7--|
E|-5-5-/-8--8---7-7-7--5--5-5-5-5-5-5-5-/-8--8---5--5-5-5-5-5-5-5--|

(Verse Two)

E|--------------------------------------------------------------------|
B|--------------------------------------------------------------------|
G|--------------------------------------------------------------------|
D|--------------------------------------------------------------------|
A|-10-10-9-9-9-10-10-9-9-9-10-10-9-9-9--5-----------------------------|
E|-8--8--7-7-7-8--8--7-7-7-8--8--7-7-7--7-----------------------------|

(Chorus One)

E|--------------------------------------------------------------------|
B|--------------------------------------------------------------------|
G|--------------------------------------------------------------------|
D|-7-7-----------------5-5-5-5-5-/-9-9-----------------7-7-7-7-7-----|
A|-5-5-7-7-7-7-7--5-5-3-3-3-3-3-/-7-7-9-9-9-9-9--7-7-5-5-5-5-5-----|
E|-----5-5-5-5-5--3-3-----------------7-7-7-7-7--5-5----------------|
CHORUS ONE ABOVE SLIDES ACROSS TO CHORUS ONE CONINTUED BELOW.


(Chorus One Continued)

E|--------------------------------------------------------------------|
B|--------------------------------------------------------------------|
G|--------------------------------------------------------------------|
D|-----5-5-5-5-5-/----------------------------------------------------|
A|-5-5-3-3-3-3-3-/----------------------------------------------------|
E|-3-3----------------------------------------------------------------|

(Chorus Two)

E|--------------------------------------------------------------------|
B|--------------------------------------------------------------------|
G|--------------------------------------------------------------------|
D|-7-7-----------------5-5-5-5-5-/-9-9-----------------5-5-5-5-5------|
A|-5-5-7-7-7-7-7--5-5-3-3-3-3-3-/-7-7-9-9-9-9-9--5-5-3-3-3-3-3------|
E|-----5-5-5-5-5--3-3-----------------7-7-7-7-7--3-3----------------|

(Solo)

E|--------------------------------------------------------------------|
B|--------------------------------------------------------------------|
G|--------------------------------------------------------------------|
D|---7-5-3-----5-3-5-3----------7-5-3-----5-3-5-3---------------------|
A|-5-------3-5---------5-/-7--5-------3-5---------5-/-7---------------|
E|--------------------------------------------------------------------|

(Riff two)

E|--------------------------------------------------------------------|
B|--------------------------------------------------------------------|
G|--------------------------------------------------------------------|
D|-5-5-5-5-5-5-5-5--5-5-5-5-5-5-5-5--2-2-2-2-2-2-2-2------------------|
A|-3-3-3-3-3-3-3-3--2-2-2-2-2-2-2-2--X-X-X-X-X-X-X-X--5-5-5-5-5-5-5-5-|
E|-----------------------------------0-0-0-0-0-0-0-0--3-3-3-3-3-3-3-3-|

(Outro)

E|---------------------------------------------------------------------|
B|---------------------------------------------------------------------|
G|---------------------------------------------------------------------|
D|------PM.........--PM.........--PM.................................--|
A|-5-/-7--7-7-7--7-7-7--7-7-7-7-7-7-7----------------------------------|
E|-3-/-5--5-5-5--5-5-5--5-5-5-5-5-5-5----------------------------------|

(Pick Slide)

E|----------------------------------------------------------------------|
B|----------------------------------------------------------------------|
G|----------NARSTY-PICK-SLIDE--LET-RING-AND-FADE-OUT--------------------|
D|----------------------------------------------------------------------|
A|----------------------------------------------------------------------|
E|----------------------------------------------------------------------|

| /  Slide up
|   Slide down
| H  Hammer-on
| P  pull-off
| ~  Vibrato
| +  Harmonic
| X  Mute note
===============================================================

ANY QUESTIONS
fen0001@bairnsdalesc.vic.edu.au

ORDER

Intro.         X4. Guitar 1 plays all, Guitar 2 joins on 4.
Riff One.  	X2. Guitar 2 plays all.
Verse One. 	X2. Guitar 1 plays all.
Verse Two. 	X2. Guitar 1 plays all.
Chorus One.    X1. Both Guitars play.
Chorus Two.   	X1. Both Guitars play.
Solo.      	X1. Guitar 2 plays all.
Riff Two.  	X2. Guitar 1 plays all.
Chorus One.    X1. Both Guitars play.
Chorus Two.    X1. Both Guitars play.
Verse One. 	X2. Guitar 1 plays all.
Verse Two. 	X2. Guitar 1 plays all.
Outro.         X2. Guitar 2 plays all. LET RING.
Pick Slide.    X.   FADE OUT.

Guitar 1: Ashton.
Guitar 2: Ibanez.
Добавлено: 28.12.2013
Другие материалы по этой песне:
  • Аккорды и текст

Страница создана 28.12.2013
http://primanota.ru/misc-unsigned-bands/bodyboarders-without-words-chords.htm
Привет, Гость.
Предлагаем пройти революционный курс по гитаре.
Подарок от PrimaNota.Ru, забирай!