PrimaNota.ru - самый крупный в мире бесплатный архив песенных текстов, аккордов, табулатур и нот


Misc Unsigned Bands - Blog 27 - Zabiore Cie - таба

Регистрация Запомнить меня
Войти через:  Facebook Google Twitter Vk Yandex Mail.ru

Misc Unsigned Bands - Blog 27 - Zabiore Cie - таба

Печатать
Просмотров: 51
Уроки эстрадного вокала в Санкт-Петербурге
E:---------------------------------------------------------12-----------------------------12b14b12|
B:-------------------------------------------------------------12-12------------------------------|
G:------------------------------------------------9-9-9-----------11b13b11-9-11-------------------|
D:-------------------------------------9-9-9/11--------------------------------------9------------|
A:--4-7-4-4/7-7-4------4-7-4-4/7------------------------------------------------------------------|
E:7-----------------7--7--------------------------------------------------------------------------|

E:--12p9--------------------------------------------------------------------12-11------------|
B:--------12p9-12p9----12p9---12p9--------------------------------------------12----12-10
Добавлено: 23.10.2013
Другие материалы по этой песне:
  • Аккорды и текст

Страница создана 23.10.2013
http://primanota.ru/misc-unsigned-bands/blog-27-zabiore-cie-chords.htm
Привет, Гость.
Предлагаем пройти революционный курс по гитаре.
Подарок от PrimaNota.Ru, забирай!