PrimaNota.ru - самый крупный в мире бесплатный архив песенных текстов, аккордов, табулатур и нот


Misc Unsigned Bands - Blinded Mind - Sounds Of Horror - таба

Регистрация Запомнить меня
Войти через:  Facebook Google Twitter Vk Yandex Mail.ru

Misc Unsigned Bands - Blinded Mind - Sounds Of Horror - таба

Печатать
Просмотров: 49
Уроки эстрадного вокала в Санкт-Петербурге
[Alternative pick the zeros that are palm muted]
Verse:                                         
E|---------------------------------------------|--------------|
B|-------------do this 2 times-----------------|--------------|
G|---------------------------------------------|--------------|
D|-::::--9--::::--9--:--9-10--::::--9--::::--9-|-:--9-10-12---|
A|-0000--0--0000--0--0--0--0--0000--0--0000--0-|-0--0--0--0---|
D|---------------------------------------------|--------------|

E|-------------------------------------------------------------------------|
B|-------------------------------------------------------------------------|
G|-------------------------------------------------------------------------|
D|::::--9--::::--9--:--9-10-12--::::--12--::::--12--:--12--13-::::-12-13-15|
A|0000--0--0000--0--0--0--0--0--0000---0--0000---0--0---0---0-0000--0--0--0|
D|-------------------------------------------------------------------------|
Pre-Chorus Guitar 1 fast
E|-------------------------16-15-16/18^-----|
B|----------------16-15-17------------------|
G|-------16-15-17---------------------------|
D|-17-15------------------------------------|
A|------------------------------------------|
D|------------------------------------------|
Guitar 2 fast
E|-------------------------13-12-13/15^-----|
B|----------------13-12-14------------------|
G|-------13-12-14---------------------------|
D|-14-12------------------------------------|
A|------------------------------------------|
D|------------------------------------------|
Chorus Guitar 1 it's not that fast it goes the way the singer goes  
E|-16----------------16------------------------|
B|----17----------17----17---------------------|
G|-------16----16---------16----15-15--16-18-20|
D|----------18---------------18----------------|
A|---------------------------------------------|
D|---------------------------------------------|
Guitar 2
E|---------------------------------------------|
B|---------------------------------------------|
G|--::----::----::----::----::-----------------|
D|-7777--5555--4444--2222--4444-4--4---5--7--9-|
A|-7777--5555--4444--2222--4444-2--2---3--5--7-|
D|-7777--5555--4444--2222--4444----------------|
Breakdown: Guitar 1 single notes
E|--------------------------------------------------|
B|--------------------------------------------------|
G|--------------------------------------------------|
D|-----8---------8-----8-----7-----7---------7h8~---|
A|---6---6-----6-----6-----6-----6-------6----------|
D|-5-------5-5-----5-----5-----5-----5--------------|
Guitar 2
E|----------------------------------------------|
B|----------------------------------------------|
G|----------------------------------------------|
D|-----4---------4-----4-----3-----3---------3h4|
A|---2---2-----2-----2-----2-----2-------2------|
D|-4-------4-4-----4-----4-----4-----4----------|
Verse:Both Guitars
E|------------------------------------------------------|
B|------------------------------------------------------|
G|------------------------------------------------------|
D|-22--2--222-3-3-66666666-44444444-3333333333333333-77777777---|
A|-00--3--333-1-3-55555555-55555555-1111111144444444-55555555---|
D|--------------3-33333333-44444444-3333333333333333------------|
solo VERY VERY FAST and sweep picking
E|-11------------13---------15--------------------------------|
B|---10---11---12--10-----14--11-----12---9-------9----12-----|
G|-----11----11------11-12------10-14--11---13-10---14----15--|
D|-------9-------------9----------9---------------------------|
A|---------------------------------------------------------|
D|---------------------------------------------------------|

E|------------12--------------------12h14^|
B|--------13----13--15h16p14--------------|
G|---15p12--15----14--------14h16p14------|
D|-12-------------------------------------|
A|----------------------------------------|
D|----------------------------------------|
play chorus again then 2nd part to the 1st verse
GUITAR 1 VERY VERY VERY FAST 
E|-------------------------16-15-16/18^-----|
B|----------------16-15-17------------------|
G|-------16-15-17---------------------------|
D|-17-15------------------------------------|
A|------------------------------------------|
D|------------------------------------------|
GUITAR 2 VERY VERY VERY FAST 
E|-------------------------13-12-13/15^-----|
B|----------------13-12-14------------------|
G|-------13-12-14---------------------------|
D|-14-12------------------------------------|
A|------------------------------------------|
D|------------------------------------------|


 
Добавлено: 21.11.2013
Другие материалы по этой песне:
  • Аккорды и текст

Страница создана 21.11.2013
http://primanota.ru/misc-unsigned-bands/blinded-mind-sounds-of-horror-chords.htm
Привет, Гость.
Предлагаем пройти революционный курс по гитаре.
Подарок от PrimaNota.Ru, забирай!