PrimaNota.ru - самый крупный в мире бесплатный архив песенных текстов, аккордов, табулатур и нот


Misc Unsigned Bands - Blank - Tonight - таба

Регистрация Запомнить меня
Войти через:  Facebook Google Twitter Vk Yandex Mail.ru

Misc Unsigned Bands - Blank - Tonight - таба

Печатать
Просмотров: 91
-------------------------------------------------------------------------------
                             TONIGHT - Amy Kirk
-------------------------------------------------------------------------------
Tabbed by:
E-mail:

Tuning:Standard

Capo 3

e|---------------------------------------------------------------------------|
B|-------0-----------------3-----------1--------------0----------------------|
G|----0-----0----------2------2-----0-----0--------0-----0-------------------|
D|-----------------0---------------------------------------------------------|
A|-------------------------------3-------------------------------------------|
E|-0-----------------------------------------3-------------------------------|
x3
e|---------------------------------------------------------------------------|
B|-------0-----------3-----------1-------------------------------------------|
G|----0-----0-----2-----2-----0-----0----------------------------------------|
D|-------------0-------------------------------------------------------------|
A|-------------------------3-------------------------------------------------|
E|-0-----------------------------------3-------------------------------------|


(play with tab)

You're struggling and I don't know how to fix you
You're stuttering with every word you speak
You've sped up on the road that leads to nowhere
You just want to give up

Em C              G           D   
You, you are the light of my life
    Em C           G        D          
And you, you mean so much to me
   Em C          G    D             Em C G D                              
And I couldn't handle it if you were g-o-n-e
  Em       C
i love you okay
     G         D  
you cannot give up 
     Em     C       G       D
you cannot leave me here alone
  Em  C   G     D
so don't leave baby,
Em C  G     D   Em C G D   
don't leave me tonight
   Em C G D
tonight
 

e|---------------------------------------------------------------------------|
B|-------0-----------------3-----------1--------------0----------------------|
G|----0-----0----------2------2-----0-----0--------0-----0-------------------|
D|-----------------0---------------------------------------------------------|
A|-------------------------------3-------------------------------------------|
E|-0-----------------------------------------3-------------------------------|
x3
e|---------------------------------------------------------------------------|
B|-------0-----------3-----------1-------------------------------------------|
G|----0-----0-----2-----2-----0-----0----------------------------------------|
D|-------------0-------------------------------------------------------------|
A|-------------------------3-------------------------------------------------|
E|-0-----------------------------------3-------------------------------------|

(play with tab)

You're crying and you can't seem to stop
You're shaking but it's not even cold
You've slowed down on the path that leads to happiness
You think you've done everything wrong

    Em C              G           D   
But you, you are the light of my life
    Em C           G        D          
And you, you mean so much to me
   Em C          G    D             Em C G D                              
And I couldn't handle it if you were g-o-n-e
  Em       C
i love you okay
     G         D  
you cannot give up 
     Em     C       G       D
you cannot leave me here alone
  Em  C   G     D
so don't leave baby,
Em C  G     D   Em C G D   
don't leave me tonight
   Em C G D
tonight
 

       Am                   C   C7      Em
You're just caught up thinking about the past again
       Am                   C   C7    Em
You're just caught up thinking about your lifes end
        Am               C      C7   Em           Am
You're just caught up you just want everything to go away


    Em C              G           D   
But you, you are the light of my life
    Em C           G        D          
And you, you mean so much to me
   Em C          G    D             Em C G D                              
And I couldn't handle it if you were g-o-n-e
  Em       C
i love you okay
     G         D  
you cannot give up 
     Em     C       G       D
you cannot leave me here alone
  Em  C   G     D
so don't leave baby,
Em C  G     D     
don't leave me 

e|---------------------------------------------------------------------------|
B|-------0-----------1-----------0------------3------------------------------|
G|----0-----0-----0-----0-----0-----0------2-----2---------------------------|
D|--------------------------------------0-----------0------------------------|
A|-------------3-------------------------------------------------------------|
E|-0-----------------------3-------------------------------------------------|x2

(Play with tab)

So Don't leave me baby
                     Em
Don't leave me tonight
 
Добавлено: 12.10.2015
Другие материалы по этой песне:
  • Аккорды и текст

Страница создана 12.10.2015
http://primanota.ru/misc-unsigned-bands/blank-tonight-chords.htm
Привет, Гость.
Предлагаем пройти революционный курс по гитаре.
Подарок от PrimaNota.Ru, забирай!