PrimaNota.ru - самый крупный в мире бесплатный архив песенных текстов, аккордов, табулатур и нот


Misc Unsigned Bands - Blackoutskies - Tigers Sleep Beneath - таба

Регистрация Запомнить меня
Войти через:  Facebook Google Twitter Vk Yandex Mail.ru

Misc Unsigned Bands - Blackoutskies - Tigers Sleep Beneath - таба

Печатать
Просмотров: 39
Tigers Sleep Beneath - Blackoutskies

Drop D Tuning
INTRO
e|-----------------------------------------------------------|
B|-----------------------------------------------------------|
G|-10-----12-----9----10----12----14---9---------------------|
D|-8------8------8-----0-----0-----0---0---------------------|
A|-8------8------8-----0-----0-----0---0---------------------|
E|-8------8------8-----0-----0-----0---0---------------------|

e|-----------------------------------------------------------|
B|-----------------------------------------------------------|
G|-10-----12-----9----------0p2p0----------------------------|
D|-8------8------8------2-3-------2p0------------------------|
A|-8------8------8-------------------------------------------|
E|-8------8------8-------------------------------------------|

Guitar 2 Harmony Riff
e|------------------------------------------------------------|
B|------------------------------------------------------------|
G|-10-----12-----9----------2p3p2-----------------------------|
D|-8------8------8------2-0-------5-3-------------------------|
A|-8------8------8--------------------------------------------|
E|-8------8------8--------------------------------------------|

e|-------------------------------------------------------------|
B|-------------------------------------------------------------|
G|-10-----12-----9----10----12----14---17----------------------|
D|-8------8------8-----0-----0-----0----0----------------------|
A|-8------8------8-----0-----0-----0----0----------------------|
E|-8------8------8-----0-----0-----0----0----------------------|

e|-----------------------------------------------------------|
B|-----------------------------------------------------------|
G|-10-----12-----9----------0p2p0----------------------------|
D|-8------8------8------2-3-------2p0------------------------|
A|-8------8------8-------------------------------------------|
E|-8------8------8-------------------------------------------|

Guitar 2 Harmony Riff
e|-----------------------------------------------------------|
B|-----------------------------------------------------------|
G|-10-----12-----9----------2p3p2----------------------------|
D|-8------8------8------2-0-------5-3------------------------|
A|-8------8------8-------------------------------------------|
E|-8------8------8-------------------------------------------|


CLEAN Verse

e|-------8-----------------8---------------------------------|
B|----------11---------------11------------------------------|
G|--10---------------10--------------------------------------|
D|-----8-----------------0-----------(x2)--------------------|
A|-----------------------------------------------------------|
E|-8----------------0----------------------------------------|

Bridge Riff Back To Chorus

e|-----13---------12-----------------------------------------|
B|-----------------------------------------------------------|
G|-----10---------9------------------------------------------|
D|-----------------------------------------------------------|
A|-----------------------------------------------------------|
E|-----------------------------------------------------------|

Chorus

e|-----------------------------------------------------------|
B|-----------------------------------------------------------|
G|-10-----12-----9----10----12----14---9---------------------|
D|-8------8------8-----0-----0-----0---0---------------------|
A|-8------8------8-----0-----0-----0---0---------------------|
E|-8------8------8-----0-----0-----0---0---------------------|

e|-----------------------------------------------------------|
B|-----------------------------------------------------------|
G|-10-----12-----9----------0p2p0----------------------------|
D|-8------8------8------2-3-------2p0------------------------|
A|-8------8------8-------------------------------------------|
E|-8------8------8-------------------------------------------|

Guitar 2 Harmony Riff
e|-----------------------------------------------------------|
B|-----------------------------------------------------------|
G|-10-----12-----9----------2p3p2----------------------------|
D|-8------8------8------2-0-------5-3------------------------|
A|-8------8------8-------------------------------------------|
E|-8------8------8-------------------------------------------|

e|-------------------------------------------------------------|
B|-------------------------------------------------------------|
G|-10-----12-----9----10----12----14---17----------------------|
D|-8------8------8-----0-----0-----0----0----------------------|
A|-8------8------8-----0-----0-----0----0----------------------|
E|-8------8------8-----0-----0-----0----0----------------------|

e|-----------------------------------------------------------|
B|-----------------------------------------------------------|
G|-10-----12-----9----------0p2p0----------------------------|
D|-8------8------8------2-3-------2p0------------------------|
A|-8------8------8-------------------------------------------|
E|-8------8------8-------------------------------------------|

Guitar 2 Harmony Riff
e|-----------------------------------------------------------|
B|-----------------------------------------------------------|
G|-10-----12-----9----------2p3p2----------------------------|
D|-8------8------8------2-0-------5-3------------------------|
A|-8------8------8-------------------------------------------|
E|-8------8------8-------------------------------------------|

Back To Clean

e|-------8-----------------8---------------------------------|
B|----------11---------------11------------------------------|
G|--10---------------10--------------------------------------|
D|-----8-----------------0-----------(x2)--------------------|
A|-----------------------------------------------------------|
E|-8----------------0----------------------------------------|

Bridge Riff Back To Chorus

e|-----13---------12-----------------------------------------|
B|-----------------------------------------------------------|
G|-----10---------9------------------------------------------|
D|-----------------------------------------------------------|
A|-----------------------------------------------------------|
E|-----------------------------------------------------------|

Chorus

e|-----------------------------------------------------------|
B|-----------------------------------------------------------|
G|-10-----12-----9----10----12----14---9---------------------|
D|-8------8------8-----0-----0-----0---0---------------------|
A|-8------8------8-----0-----0-----0---0---------------------|
E|-8------8------8-----0-----0-----0---0---------------------|

e|-----------------------------------------------------------|
B|-----------------------------------------------------------|
G|-10-----12-----9----------0p2p0----------------------------|
D|-8------8------8------2-3-------2p0------------------------|
A|-8------8------8-------------------------------------------|
E|-8------8------8-------------------------------------------|

Guitar 2 Harmony Riff
e|-----------------------------------------------------------|
B|-----------------------------------------------------------|
G|-10-----12-----9----------2p3p2----------------------------|
D|-8------8------8------2-0-------5-3------------------------|
A|-8------8------8-------------------------------------------|
E|-8------8------8-------------------------------------------|

e|-------------------------------------------------------------|
B|-------------------------------------------------------------|
G|-10-----12-----9----10----12----14---17----------------------|
D|-8------8------8-----0-----0-----0----0----------------------|
A|-8------8------8-----0-----0-----0----0----------------------|
E|-8------8------8-----0-----0-----0----0----------------------|

e|-----------------------------------------------------------|
B|-----------------------------------------------------------|
G|-10-----12-----9----------0p2p0----------------------------|
D|-8------8------8------2-3-------2p0------------------------|
A|-8------8------8-------------------------------------------|
E|-8------8------8-------------------------------------------|

Guitar 2 Harmony Riff
e|-----------------------------------------------------------|
B|-----------------------------------------------------------|
G|-10-----12-----9----------2p3p2----------------------------|
D|-8------8------8------2-0-------5-3------------------------|
A|-8------8------8-------------------------------------------|
E|-8------8------8-------------------------------------------|

BreakDown (Not Really)

Guitar 1
e|-----------------------------------------------------------|
B|-----------------------------------------------------------|
G|--10--7--9--7-------------10--7--9--7----------------------|
D|--------------10--7--(x2)----------------------------------|
A|----------------------------------------------(X2)---------|
E|-----------------------------------------------------------|

Guitar 2

e|-----------------------------------------------------------|
B|-----------------------------------------------------------|
G|-10---------------7---9---10--12---------------------------|
D|-8---------------------------------------------------------|
A|-8-(Let Ring Out)-5---7---8---10---------------------------|
E|-8---------------------------------------------------------|

Second Guitar 1 Riff

e|-----------------------------------------------------------------------------|
B|-----------------------------------------------------------------------------|
G|--10-7-9-7------------10-7-9-7-----15-12-14-12-----------15-12-14-12---------|
D|-----------10-7--(x2)--------------------------15-12-(x2)-----------     A|--|
E|-----------------------------------------------------------------------------|

Guitar 1 Plays Same Riff Over Guitar 2 Rythm

e|--------------------------------------------------------------------|
B|--------------------------------------------------------------------|
G|-10--12--9---------------7------------7-----------------------------|
D|-8---8---8--------0-0-0-----00-0-0-0--------------------------------|
A|-8---8---8--------0-0-0--5--00-0-0-0--5-----------------------------|
E|-8---8---8--------0-0-0-----00-0-0-0--------------------------------|


Break Back Into Chorus

e|-----------------------------------------------------------------------|
B|-----------------------------------------------------------------------|
G|-----------------------------------------------------------------------|
D|----------x0----x0----x0-----------------------------------------------|
A|----------x0----x0----x0-----------------------------------------------|
E|----------x0----x0----x0-----------------------------------------------|

Chorus

e|-----------------------------------------------------------|
B|-----------------------------------------------------------|
G|-10-----12-----9----10----12----14---9---------------------|
D|-8------8------8-----0-----0-----0---0---------------------|
A|-8------8------8-----0-----0-----0---0---------------------|
E|-8------8------8-----0-----0-----0---0---------------------|

e|-----------------------------------------------------------|
B|-----------------------------------------------------------|
G|-10-----12-----9----------0p2p0----------------------------|
D|-8------8------8------2-3-------2p0------------------------|
A|-8------8------8-------------------------------------------|
E|-8------8------8-------------------------------------------|

Guitar 2 Harmony Riff
e|------------------------------------------------------------|
B|------------------------------------------------------------|
G|-10-----12-----9----------2p3p2-----------------------------|
D|-8------8------8------2-0-------5-3-------------------------|
A|-8------8------8--------------------------------------------|
E|-8------8------8--------------------------------------------|

e|-------------------------------------------------------------|
B|-------------------------------------------------------------|
G|-10-----12-----9----10----12----14---17----------------------|
D|-8------8------8-----0-----0-----0----0----------------------|
A|-8------8------8-----0-----0-----0----0----------------------|
E|-8------8------8-----0-----0-----0----0----------------------|

e|-----------------------------------------------------------|
B|-----------------------------------------------------------|
G|-10-----12-----9----------0p2p0----------------------------|
D|-8------8------8------2-3-------2p0------------------------|
A|-8------8------8-------------------------------------------|
E|-8------8------8-------------------------------------------|

Guitar 2 Harmony Riff
e|-----------------------------------------------------------|
B|-----------------------------------------------------------|
G|-10-----12-----9----------2p3p2----------------------------|
D|-8------8------8------2-0-------5-3------------------------|
A|-8------8------8-------------------------------------------|
E|-8------8------8-------------------------------------------|


End Strum Of Song

e|--------------------------------------------------------------|
B|--------------------------------------------------------------|
G|--------------------10--9--10---------------10-9-10-----------|
D|---8--8--8----------0---0--0------8--8--8---0--0-0------------|
A|---8--8--8----------0---0--0------8--8--8---0--0-0------------|
E|---8--8--8----------0---0--0------8--8--8---0--0-0------------|


Last Chord

e|--------------------------------------------------------------|
B|----------------10--------------------------------------------|
G|----------------10--------------------------------------------|
D|----------------8------(Ring Out)-----------------------------|
A|----------------8---------------------------------------------|
E|----------------8---------------------------------------------|
Добавлено: 17.01.2014
Другие материалы по этой песне:
  • Аккорды и текст

Страница создана 17.01.2014
http://primanota.ru/misc-unsigned-bands/blackoutskies-tigers-sleep-beneath-chords.htm
Привет, Гость.
Предлагаем пройти революционный курс по гитаре.
Подарок от PrimaNota.Ru, забирай!