PrimaNota.ru - самый крупный в мире бесплатный архив песенных текстов, аккордов, табулатур и нот


Misc Unsigned Bands - бкмсб - 13 - таба

Регистрация Запомнить меня
Войти через:  Facebook Google Twitter Vk Yandex Mail.ru

Misc Unsigned Bands - бкмсб - 13 - таба

Печатать
Просмотров: 612
-------------------------------------------------------------------------------
                             #13 - БКМСБ
-------------------------------------------------------------------------------
Tabbed by: Marshall
E-mail: vitya99111@gmail.com

Tuning: Drop D

Intro and verse.

e|---------------------------------------------------------------------------|
B|---------------------------------------------------------------------------|
G|-6-6-6---6-6-6---6-6-6---6-6-6---10-10-8---8--8--8----10-10-10---10-10-10--|
D|-7-7-7---6-6-6---7-7-7---7-7-7---9--9--9---9--9--9----12-12-12---10-10-10--|
A|-8-8-8---7-7-7---7-7-7---0-0-0---8--8--8---11-11-11---12-12-12---12-12-12--|
D|---------------------------------------------------------------------------|

Chorus

e|---------------------------------------------------------------------------|
B|---------------------------------------------------------------------------|
G|---------------------------------------------------------------------------|
D|-8-7-0-3-------------------------------------------------------------------|
A|-8-7-0-3-------------------------------------------------------------------|
D|-8-7-0-3-------------------------------------------------------------------|

************************************

| /   slide up
| \   slide down
| h   hammer-on
| p   pull-off
| ~   vibrato
| +   harmonic
| x   Mute note
| b   Bend
| pb  Pre-bend
| br  Bend release
| pbr Pre-bend release
| brb Bend release bend

************************************
Добавлено: 19.10.2015
Другие материалы по этой песне:
  • Аккорды и текст

Страница создана 19.10.2015
http://primanota.ru/misc-unsigned-bands/bkmsb-13-chords.htm
Привет, Гость.
Предлагаем пройти революционный курс по гитаре.
Подарок от PrimaNota.Ru, забирай!