PrimaNota.ru - самый крупный в мире бесплатный архив песенных текстов, аккордов, табулатур и нот


Misc Unsigned Bands - Bird Calls - Fortnum And Mason - бас-таба

Регистрация Запомнить меня
Войти через:  Facebook Google Twitter Vk Yandex Mail.ru

Misc Unsigned Bands - Bird Calls - Fortnum And Mason - бас-таба

Печатать
Просмотров: 86
Уроки эстрадного вокала в Санкт-Петербурге
BIRD CALLS - FORTNUM AND MASON

BD = Bend down

G|---------------------------------------------------------|
D|-----6---6h7-------6---6h7-------6-7-9-7-6-----6-7-9-7-6-|
A|-4-4---4-----4-0-0---0-----0-7-7-------------------------| x4
E|-------------------------------------------7-7-----------|

G|---------------------------------------------------|
D|---------------------------------------------------|
A|-2-2-2-2-2-4-4-4-4-4-4-7-7-7-7-7-7-9-9-9-7-7-7-7-7-| x4
E|---------------------------------------------------|

G|----------------------------------------------|
D|----------------------------------------------|
A|-4-4-4-4-4-0-0-0-0-0-0------------------------| x2
E|------------------------0-0-0-0-0-7-7-7-7-7-7-|

G|---------------------------------------------------------|
D|-----6---6h7-------6---6h7-------6-7-9-7-6-----6-7-9-7-6-|
A|-4-4---4-----4-0-0---0-----0-7-7-------------------------| x2
E|-------------------------------------------7-7-----------|

G|---------------------------------------------------|
D|---------------------------------------------------|
A|-2-2-2-2-2-4-4-4-4-4-4-7-7-7-7-7-7-9-9-9-7-7-7-7-7-| x4
E|---------------------------------------------------|

G|-------------------------------------------------|
D|-7-7-7-7-7-7-5BD---------------------------------|
A|-----------------7-----7-----7-----7-----7---7---| x4
E|-------------------0-0---0-0---0-0---0-0---0---0-|

G|---------------------------------------------------|
D|---------------------------------------------------|
A|---------0-3-0--------------------0-3-0------------| 
E|-3-0-3-5-------5-0-3-3-3--3-0-3-5-------5-3-0-0-0--|

G|------------------------------------------|
D|------------------------------------------|
A|---------0-3-0----------------------------| 
E|-3-0-3-5-------5-0-3-3-3-3h5-0-3h5-0-5----|

repeat last two bars

Guitar on It's own for a bar.

G|-----------------------|
D|------7----------------|
A|-4---------7----/14----|
E|-----------------------|

G|----------------------------|
D|----6/7\6---6h7-6---6-7-6-4-|
A|-4----------------7---------| x2
E|----------------------------|

G|-------------------------------|
D|----6/7\6-6h7-6--------6-7-6-4-|
A|-4--------------7/9-\7---------|
E|-------------------------------|

G|----------------------------|
D|----6/7\6---6h7-6------9----|
A|-4----------------7---------| 
E|----------------------------|

G|----------------------------------------------|
D|----------------------------------------------|
A|-4-4-4-4-4-0-0-0-0-0-0------------------------| x2
E|------------------------0-0-0-0-0-7-7-7-7-7-7-|

G|---------------------------------------------------------|
D|-----6---6h7-------6---6h7-------6-7-9-7-6-----6-7-9-7-6-|
A|-4-4---4-----4-0-0---0-----0-7-7-------------------------| x2
E|-------------------------------------------7-7-----------|

G|---------------------|
D|---------------------|
A|-4-4---4-4---4-4---4-|
E|---------------------|
Добавлено: 11.06.2013
Другие материалы по этой песне:
  • Аккорды и текст

Страница создана 11.06.2013
http://primanota.ru/misc-unsigned-bands/bird-calls-fortnum-and-mason-chords.htm
Привет, Гость.
Предлагаем пройти революционный курс по гитаре.
Подарок от PrimaNota.Ru, забирай!