PrimaNota.ru - самый крупный в мире бесплатный архив песенных текстов, аккордов, табулатур и нот


Misc Unsigned Bands - Biorn Borg - Et - таба

Регистрация Запомнить меня
Войти через:  Facebook Google Twitter Vk Yandex Mail.ru

Misc Unsigned Bands - Biorn Borg - Et - таба

Печатать
Просмотров: 76
Уроки эстрадного вокала в Санкт-Петербурге
First tab on UG
E.T.
Biorn Borg

Riff Intro/Rhythm

e---------------------------------------------------|
B---------------------------------------------------|
G---------------------------------------------------| x 4
D---------------------------------------------------|
A-------------66----22-33-5-3-----------------------|
E----55-88-55----55--------------(5)----------------|

(5) Solo en la última 

Riff Intro/Lead


e---------------------------------------------------|
B---------------------------------------------------|
G---------------------8x----4x-5x-7x-5x-------------| x 4
D----7x-10x-7x----7x--8x----4x-5x-7x-5x-------------|
A----7x-10x-7x----7x--6x----2x-3x-5x-3x-------------|
E----5x--8x-5x----5x--------------(5)---------------|

Riff Verso 1/Rhythm

e---------------------------------------------------|
B---------------------------------------------------|
G---------------------------------------------------| x 3
D---------------------------------------------------|
A-------------66----22--55-3------------------------|
E----55-88-55----55---------------------------------|


Riff Verso 1/Lead

e-----------------------------8\--------------------|
B----------10-------8---------8\--------------------|
G---------------------------------------------------| x 3
D-------7---------7---------------------------------|
A---------------------------------------------------|
E----5---------5------------------------------------|

Coro/Rhythm

e----------------------------------------|
B----------------------------------------|
G-----------5-5-5--10-10-10--9-9-9-9-----|
D----7-7-7--5-5-5--10-10-10--9-9-9-9-----|
A----7-7-7--3-3-3---8--8--8--7-7-7-7-----|
E----5-5-5-------------------------------|
                                               
e----------------------------------------|
B----------------------------------------|
G-----------5-5-5---7-7-7--5-5-5---------|        x2
D----7-7-7--5-5-5---7-7-7--5-5-5---------|       
A----7-7-7--3-3-3---5-5-5--3-3-3---------|
E----5-5-5-------------------------------|

e----------------------------------------|
B----------------------------------------|
G-----------5-5-5--10-10-10--9-9-9-9--7--|
D----7-7-7--5-5-5--10-10-10--9-9-9-9--7--|
A----7-7-7--3-3-3---8--8--8--7-7-7-7--5--|
E----5-5-5-------------------------------|

Coro/Lead

e--------------------------------------------|
B--------------------------------------------|
G-----------5-5-5--10-10-10--9-9-9-9---------|
D----7-7-7--5-5-5--10-10-10--9-9-9-9---------|
A----7-7-7--3-3-3---8--8--8--7-7-7-7---------|
E----5-5-5-----------------------------------|
                                               
e--------------------------------------------|
B--------------------------------------------|
G-----------5-5-5---7-7-7--5-5-5-------------|     x2
D----7-7-7--5-5-5---7-7-7--5-5-5-------------|
A----7-7-7--3-3-3---5-5-5--3-3-3-------------|
E----5-5-5-----------------------------------|

e---------------------------------------5----|
B---------------------------------------6----|
G-----------5-5-5--10-10-10--9-9-9-9----7----|
D----7-7-7--5-5-5--10-10-10--9-9-9-9---7-----|
A----7-7-7--3-3-3---8--8--8--7-7-7-7--5------|
E----5-5-5-----------------------------------|

Interlude/Rhythm

e----5--5--5--5--5--5--5--5--8--8--8--8--8--8--8--8----|
B----x--x--x--x--x--x--x--x--x--x--x--x--x--x--x--x----|
G----2--2--2--2--2--2--2--2--5--5--5--5--5--5--5--5----| x 2
D------------------------------------------------------|
A------------------------------------------------------|
E------------------------------------------------------|

La lead entra primero

Interlude/Lead

e----17-17-17-17-17-17-17-17-x-20-20-20-20-20-20-20-20----|
B----------------------------x----------------------------|
G----14-14-14-14-14-14-14-14-x-17-17-17-17-17-17-17-17----| x 2
D---------------------------------------------------------|
A---------------------------------------------------------|
E---------------------------------------------------------|

Riff Verso 2/Rhythm Se repite el Riff Verso 1 

Riff Verso 2/Lead

Lo mismo solo tocan este extra cuando canta en la segunda vez:


e----8--8--8--8--|
B----x--x--x--x--|
G----5--5--5--5--| x 2
D----------------|
A----------------|
E----------------|

Coro 2/Rhythm-Lead Se repite Coro 1

Interlude 2/Rhythm

e---------------|
B---------------|
G---------------| x 4
D---------------|
A---------------|
E----5-4-3-0----|

Interlude 2/ Lead


e----8888888888----1010108-1012----345678910-11-12-15\--|
B----xxxxxxxxxx----x-x-x-x-x-x-----xxxxxxxxxxxxxx-------|
G----5555555555----7-7-7-5-7-9-----01234567--8--9-------| 
D-------------------------------------------------------|
A-------------------------------------------------------|
E-------------------------------------------------------|

Solo/Rhythm

e---------------------------------------------------|
B---------------------------------------------------|
G---------------------------------------------------| x 4
D---------------------------------------------------|
A-------------99----55-66-8-6-----------------------|
E-----88-1111----88---------------------------------|

Solo/Lead

e-----------------------------------------------------|
B----11-------11--------------------------------------|
G------10b------10-10b-10b8--8-------8----8-----------| 
D--------------------------10-10-8h10-8h10------------|
A-----------------------------------------------------|
E-----------------------------------------------------|

e-----------------------------------------|
B----11-------11--------------------------|
G------10b------10-10b-10b8--8------------| 
D--------------------------10-10----------|
A-----------------------------------------|
E-----------------------------------------|

Coro 3/Rhythm-Lead se repite Coro 1

e-------|
B-------|
G-------| 
D----7--|
A----7--|
E----5--|


:) Un temaso sin dudas ahi esta para que se lo sepan
Добавлено: 17.06.2013
Другие материалы по этой песне:
  • Аккорды и текст

Страница создана 17.06.2013
http://primanota.ru/misc-unsigned-bands/biorn-borg-et-chords.htm
Привет, Гость.
Предлагаем пройти революционный курс по гитаре.
Подарок от PrimaNota.Ru, забирай!