PrimaNota.ru - самый крупный в мире бесплатный архив песенных текстов, аккордов, табулатур и нот


Misc Unsigned Bands - Betray The Living - A Species Not To Be Found - таба, видео

Регистрация Запомнить меня
Войти через:  Facebook Google Twitter Vk Yandex Mail.ru

Misc Unsigned Bands - Betray The Living - A Species Not To Be Found - таба, видео

Печатать
Просмотров: 39
Tabbed by R,Darkness
R.Darkness@optonlnie.net

ho=hammer on
p=pull off
h*=harmonic
b^=bend string up
b=bend ssttring down
t=fingertapping
/=slide to string

-this this intro solo the other guitaraist is palm muting
 on zero until the solo is over.
1-------------------------------------------------------------------|
2-------------------------------------------------------------------|
3-------------------------------------------------------------------|
4-------------------------------------------------------------------|
5-0-0-0-0-0-0-0-0-0-0-0-0-0-0-0-0-0-0-0-0-0-0-0-0-0-0-0-0-0-0-0-0-0-|
6-0-0-0-0-0-0-0-0-0-0-0-0-0-0-0-0-0-0-0-0-0-0-0-0-0-0-0-0-0-0-0-0-0-|
 ..................................................................

   intro solo(lead)
1---------------|
2---15ho14p-----|
3-12--------7---|
4------------12-|
5---------------|
6---------------|

1----------17p---|
2-----15-12---14-|
3----16----------|
4---12-----------|
5--16------------|
6-13-------------|

1---------------|
2---------------|
3---------------|
4---------------|
5-13t13t13t13t--|
6---------------|

1-12---16ho10p--|
2---14----------|
3---------------|
4---------------|
5---------------|
6---------------|

 verse riffb
1---------------|
2---------------|
3---------------|
4-4-0-0-0-0-6---|
5-4-0-0-0-0-6---|
6-4-0-0-0-0-6---|

1---------------|
2---------------|
3---------------|
4---------5-5-7-|
5---------5-5-7-|
6-0-0-0-0-5-5-7-|

the lead part for this riff is,,,I don't know yet but I will figure it out

 riffc(right before the chorus)
1--------|
2--------|
3---12---| repeat 2x
4-12-----|
5-----14-|
6--------|

 chorus(rythem)
1-----------------------------------|
2-----------------------------------|
3-----------------------------------|
4-7-7-7-7-7-7-5-5-5-5-5-8-8-8-0-0-0-|
5-7-7-7-7-7-7-5-5-5-5-5-8-8-8-0-0-0-|
6-7-7-7-7-7-7-5-5-5-5-8-8-8-8-0-0-0-|

1-----------------------------------|
2-----------------------------------|
3-----------------------------------|
4-7-7-7-7-7-7-5-5-5-5-8-8-8-8-0-0-0-|
5-7-7-7-7-7-7-5-5-5-5-8-8-8-8-0-0-0-|
6-7-7-7-7-7-7-5-5-5-5-8-8-8-8-0-0-0-|

 chorus(lead)-this part is freaking HARD
1----------------15t----------------|
2---17B^------13t---12ho13p---16b^--|
3-14---13ho19p-------------16b------|
4-----------------------------------|
5-----------------------------------|
6-----------------------------------|

1------------------19-14ho------13--|
2-----------------21-----14p-12-----|
315b^------------18-----------------|
4-----13ho11p---12------------------|
5--------------15-------------------|
6-------------19--------------------|

 riffd(after chorus)-both guitars
1-------------10-9--|
2-------12--------0-|
3---------13b^------|
4-------------------|
5-------------------|
6-0-0-0-0-----------|

 solo
1-13-14----------21-|
2-----15ho12p-16----|
3------------20-----|
4-------------------|
5-------------------|
6-------------------|

1--14b-13b^---------|
2-------------------|
3-------------------|
4-------------------|
5-------------------|
6-------------------|

1---13-14--16----12-|
2-12--11-12----12---|
3-------------17----|
4-------------------|
5-------------------|
6-------------------|

 riffe(right before screaming part)
1-------------------------|
2-------------------------|
3-------------------------|
4-------------------------|
5-9-6--9-6-5--9-6---9-6-5-|
6-------------------------|

 the song ends with the lsat crazy solo that I don't have
 here's the first part of it
1----------|
2----------|
3-14-------|
4----15-12-|
5----------|
6----------|
Добавлено: 17.10.2013
Другие материалы по этой песне:
  • Аккорды и текст

Страница создана 17.10.2013
http://primanota.ru/misc-unsigned-bands/betray-the-living-a-species-not-to-be-found-chords.htm
Привет, Гость.
Предлагаем пройти революционный курс по гитаре.
Подарок от PrimaNota.Ru, забирай!