PrimaNota.ru - самый крупный в мире бесплатный архив песенных текстов, аккордов, табулатур и нот


Misc Unsigned Bands - Bed Intruder Song - Hayley Williams Jordan Pundik And Ethan Luck - таба

Регистрация Запомнить меня
Войти через:  Facebook Google Twitter Vk Yandex Mail.ru

Misc Unsigned Bands - Bed Intruder Song - Hayley Williams Jordan Pundik And Ethan Luck - таба

Печатать
Просмотров: 49
BED INTRUDER SONG- Hayley Williams, Jordan Pundik, and Ethan Luck


TUNING:STANDARD

|---------------------|
|---------------------|
|---------------------|
|---------------------|
|-5555555555555555555-|
|-3333333333333333333-|

|-------------------------------------------------------------|
|-------------------------------------------------------------|
|-------------------------------------------------------------|
|-5-5-5-5-5-5-5-5-5-5-5-5-5-5-5-5-5-5-5-5-5-5-5-5-5-5-5-5-5-5-|<---you get the point
|-5-5-5-5-5-5-5-5-5-5-5-5-5-5-5-5-5-5-5-5-5-5-5-5-5-5-5-5-5-5-|
|-3-3-3-3-3-3-3-3-3-3-3-3-3-3-3-3-3-3-3-3-3-3-3-3-3-3-3-3-3-3-|
  He's climbing in your windows, he's snatchin' your people up

|-------------------------------|
|-------------------------------|
|-5-5-5-5-5-5-5-5-5-5-5-5-5-5-5-|
|-5-5-5-5-5-5-5-5-5-5-5-5-5-5-5-|
|-3-3-3-3-3-3-3-3-3-3-3-3-3-3-3-|
|-------------------------------|
  Tryna rape em so y'all need to

|-------------------------------|
|-------------------------------|
|-------------7--------------7--|
|---7----7----7----7----7----7--|
|---5----5----5----5----5----5--|
|-------------------------------|
    *    *         *    *   
  Hide your kids, hide your wife

|-------------------------------|
|-------------------------------|
|-------------------------------|
|------------5---------------5--|
|---5---5----5-----5----5----5--|
|---3---3----3-----3----3----3--|
    *   *          *    *    
  Hide your kids, hide your wife

|-------------------------------|
|-------------------------------|
|-------------------------------|
|------------5---------------5--|
|---5---5----5-----5----5----5--|
|---3---3----3-----3----3----3--|
    *   *          *    *    
  Hide your kids, hide your wife

|-----------------------------------------------------------|
|-----------------------------------------------------------|
|-5-5-5-5-5-5-5-5-5-5-5-5-5-5-5-5-5-5-5-7~------------------|
|-5-5-5-5-5-5-5-5-5-5-5-5-5-5-5-5-5-5-5-7~-----------3----3-|
|-3-3-3-3-3-3-3-3-3-3-3-3-3-3-3-3-3-3-3-5~-----------3----3-|
|----------------------------------------------------1----1-|
  And hide your husband cus' they're rapin' errbody out here

|---------------------------------------------------|
|---------------------------------------------------|
|-3-3-3-3-3-3-3-3-3-3-3-3-3-3-3-3-3-3-3-3-3-3-3-3-3-|
|-3-3-3-3-3-3-3-3-3-3-3-3-3-3-3-3-3-3-3-3-3-3-3-3-3-|
|-1-1-1-1-1-1-1-1-1-1-1-1-1-1-1-1-1-1-1-1-1-1-1-1-1-|
|---------------------------------------------------|
 You dont have to come and confess, were looking for 

|----------------------------------------|
|----------------------------------------|
|-8-8-8-8-8-8-8-8-8-8-8-1010101010101010-|
|-8-8-8-8-8-8-8-8-8-8-8-1010101010101010-|
|-6-6-6-6-6-6-6-6-6-6-6-8-8-8-8-8-8-8-8--|
|----------------------------------------|
 you, we gon' find you, we gon' find you

|--------------------------------------------------------------------|
|--------------------------------------------------------------------|
|------------------------------------------------------------5-5-5-5-|
|-5-5-5-5-5-5-5---5---3----5-----5----5---3---5-----5---5----5-5-5-5-|
|-5-5-5-5-5-5-5---5---3----5-----5----5---3---5-----5---5----3-3-3-3-|
|-3-3-3-3-3-3-3---3---1----3-----3----3---1---3-----3---3------------|
  so you can run and tell that, run and tell that, run and tell that


|----------------------------|
|----------------------------|
|-5-5-5-5-5-7-7-7-7-7-7-7----|
|-5-5-5-5-5-7-7-7-7-7-7-7----|
|-3-3-3-3-3-5-5-5-5-5-5-5----|
|----------------------------|
 homeboy, home, home, homeboy

|-------------------------------------------------------------|
|-------------------------------------------------------------|
|-8-8-8-8-8-8-8-8-8-8-8-8-8-8-8-7-7-7-7-7-7-7-7-5-5-5-5-5-5-5-|
|-8-8-8-8-8-8-8-8-8-8-8-8-8-8-8-7-7-7-7-7-7-7-7-3-3-3-3-3-3-3-|
|-6-6-6-6-6-6-6-6-6-6-6-6-6-6-6-5-5-5-5-5-5-5-5-3-3-3-3-3-3-3-| 
|-------------------------------------------------------------|
 We got your t-shirt, you left fingerprints and all you are so

|------------------------------------|
|------------------------------------|
|------------------------------------|
|--5-5-5-5-5-5-5-5-5-3-5-5-5-3----5--|
|--5-5-5-5-5-5-5-5-5-3-5-5-5-3----5--|
|--3-3-3-3-3-3-3-3-3-1-3-3-3-1----3--|
  dumb, you are really dumb, for real

|-----------------------------------------|
|-----------------------------------------|
|-----------------------------------------|
|-----------------------------------------|
|-8-8-8-8-8-8-8-8-8-7-7-7-7-7-7-5-5-5-5-5-|
|-6-6-6-6-6-6-6-6-6-5-5-5-5-5-5-3-3-3-3-3-|
  * * * * * * * * * * * * * * * * * * * * 
 The man got away leaving behind evidence

|--------------------------------------------|
|--------------------------------------------|
|--------------------------------------------|
|-3--3--3---3--------------7-------------3---|
|-3--3--3---3--------------7-------------3---|
|-1--1--1---1--------------5-------------1---|
  I was attacked by some idiot in the projects

|------------------------------|
|------------------------------|
|------------------------------|
|-5-5-5-5-5-5-5-5-5-5-5-5-5-5--|
|-5-5-5-5-5-5-5-5-5-5-5-5-5-5--|
|-3-3-3-3-3-3-3-3-3-3-3-3-3-3--|
  * * * * * * * * * * * * * 
 So dumb, so dumb, so dumb, SO!


|-------------------------------------------------------------|
|-------------------------------------------------------------|
|-------------------------------------------------------------|
|-5-5-5-5-5-5-5-5-5-5-5-5-5-5-5-5-5-5-5-5-5-5-5-5-5-5-5-5-5-5-|
|-5-5-5-5-5-5-5-5-5-5-5-5-5-5-5-5-5-5-5-5-5-5-5-5-5-5-5-5-5-5-|
|-3-3-3-3-3-3-3-3-3-3-3-3-3-3-3-3-3-3-3-3-3-3-3-3-3-3-3-3-3-3-|
  He's climbing in your windows, he's snatchin' your people up

|-------------------------------|
|-------------------------------|
|-5-5-5-5-5-5-5-5-5-5-5-5-5-5-5-|
|-5-5-5-5-5-5-5-5-5-5-5-5-5-5-5-|
|-3-3-3-3-3-3-3-3-3-3-3-3-3-3-3-|
|-------------------------------|
  Tryna rape em so y'all need to

|-------------------------------|
|-------------------------------|
|---7----7----7----7----7----7--|
|---7----7----7----7----7----7--|
|---5----5----5----5----5----5--|
|-------------------------------|
  Hide your kids, hide your wife

|-------------------------------|
|-------------------------------|
|-------------------------------|
|---5---5----5-----5----5----5--|
|---5---5----5-----5----5----5--|
|---3---3----3-----3----3----3--|
  Hide your kids, hide your wife

|-------------------------------|
|-------------------------------|
|-------------------------------|
|---5---5----5-----5----5----5--|
|---5---5----5-----5----5----5--|
|---3---3----3-----3----3----3--|  
  Hide your kids, hide your wife

|-----------------------------------------------------------|
|-----------------------------------------------------------|
|-5-5-5-5-5-5-5-5-5-5-5-5-5-5-5-5-5-5-5-7~------------------|
|-5-5-5-5-5-5-5-5-5-5-5-5-5-5-5-5-5-5-5-7~-----------3----3-|
|-3-3-3-3-3-3-3-3-3-3-3-3-3-3-3-3-3-3-3-5~-----------3----3-|
|----------------------------------------------------1----1-|
  And hide your husband cus' they're rapin' errbody out here



you don't have to come and confess 
were looking for you we gon' find you, we gon' find you


|--------------------------------------------------------------------|
|--------------------------------------------------------------------|
|------------------------------------------------------------5-5-5-5-|
|-5-5-5-5-5-5-5---5---3----5-----5----5---3---5-----5---5----5-5-5-5-|
|-5-5-5-5-5-5-5---5---3----5-----5----5---3---5-----5---5----3-3-3-3-|
|-3-3-3-3-3-3-3---3---1----3-----3----3---1---3-----3---3------------|
  so you can run and tell that, run and tell that, run and tell that

|----------------------------|
|----------------------------|
|-5-5-5-5-5-7-----7----------|
|-5-5-5-5-5-7-----7----------|
|-3-3-3-3-3-5-----5----------|
|----------------------------|
 homeboy, home, home, homeboy


ENJOY :)
Добавлено: 24.11.2013
Другие материалы по этой песне:
  • Аккорды и текст

Страница создана 24.11.2013
http://primanota.ru/misc-unsigned-bands/bed-intruder-song-hayley-williams-jordan-pundik-and-ethan-luck-chords.htm
Привет, Гость.
Предлагаем пройти революционный курс по гитаре.
Подарок от PrimaNota.Ru, забирай!