PrimaNota.ru - самый крупный в мире бесплатный архив песенных текстов, аккордов, табулатур и нот


Misc Unsigned Bands - Azn Dreamers - If You Were My Girl - аккорды и текст

Регистрация Запомнить меня
Войти через:  Facebook Google Twitter Vk Yandex Mail.ru

Misc Unsigned Bands - Azn Dreamers - If You Were My Girl - аккорды и текст

Печатать
Просмотров: 42
Azn Dreamers - If You Were My Girl
Misc Unsigned Bands
-------------------------------------------------------------------------------
                             If You Were My Girl - Azn Dreamers
-------------------------------------------------------------------------------
Tabbed by:e[Man]
made for Andy

Tuning: Standard

Verse 1

(Achin to see the sun again)

    G   C   G   C   A   D   G
e|--3-------3-----------2---3----------------------------------------------|
B|--3---1---3---1---1---3---3----------------------------------------------|
G|--0---0---0---0---2---2---0----------------------------------------------|
D|--0---2---0---2---2-------0----------------------------------------------|
A|--2---3---2---3---0-------2----------------------------------------------|
E|--3-------3---------------3----------------------------------------------|

(Achin to see you smile again)

    G   C   G   C   A   D   A   D
e|--3-------3-----------2-------2------------------------------------------|
B|--3---1---3---1---1---3---1---3------------------------------------------|
G|--0---0---0---0---2---2---2---2------------------------------------------|
D|--0---2---0---2---2-------2----------------------------------------------|
A|--2---3---2---3---0-------0----------------------------------------------|
E|--3-------3--------------------------------------------------------------|

Bridge 1

(Then I can see your true happiness at last)

    A   D   C   D
e|------2-------2----------------------------------------------------------|
B|--1---3---1---3----------------------------------------------------------|
G|--2---2---0---2----------------------------------------------------------|
D|--2-------2--------------------------------------------------------------|
A|--0-------3--------------------------------------------------------------|
E|-------------------------------------------------------------------------|

Chorus

(If you would be my girlfriend)

    G   E   A   D   G        play X2
e|--3---0-------2---3------------------------------------------------------|
B|--3---0---1---3---3------------------------------------------------------|
G|--0---0---2---4---0------------------------------------------------------|
D|--0---2---2-------0------------------------------------------------------|
A|--2---2---0-------2------------------------------------------------------|
E|--3---0-----------3------------------------------------------------------|


Verse 2 (same as verse 1)
Bridge 2 (same as bridge 1)
Chorus X2

Last Bridge

(There are so many beautiful girls in the world)

    C   A   C   G
e|--------------3----------------------------------------------------------|
B|--1---1---1---3----------------------------------------------------------|
G|--0---2---0---0----------------------------------------------------------|
D|--2---2---2---0----------------------------------------------------------|
A|--3---0---3---2----------------------------------------------------------|
E|--------------3----------------------------------------------------------|

(And I've chosen today)

    C   A   C   D
e|--------------2----------------------------------------------------------|
B|--1---1---1---3----------------------------------------------------------|
G|--0---2---0---2----------------------------------------------------------|
D|--2---2---2--------------------------------------------------------------|
A|--3---0---3--------------------------------------------------------------|
E|-------------------------------------------------------------------------|

Chorus X4


then done....

| /  slide up
| \  slide down
| h  hammer-on
| p  pull-off
| ~  vibrato
| +  harmonic
| x  Mute note
===============================================================================
Добавлено: 31.01.2014
Другие материалы по этой песне:
  • Аккорды и текст

Страница создана 31.01.2014
http://primanota.ru/misc-unsigned-bands/azn-dreamers-if-you-were-my-girl-chords.htm
Привет, Гость.
Предлагаем пройти революционный курс по гитаре.
Подарок от PrimaNota.Ru, забирай!