PrimaNota.ru - самый крупный в мире бесплатный архив песенных текстов, аккордов, табулатур и нот


Misc Unsigned Bands - August Oster - Frog Town - таба

Регистрация Запомнить меня
Войти через:  Facebook Google Twitter Vk Yandex Mail.ru

Misc Unsigned Bands - August Oster - Frog Town - таба

Печатать
Просмотров: 57
-----------------------------------------------------------------------------
                             Frog Town - August Oster
-----------------------------------------------------------------------------

Tabbed by: August Oster
Email: osterhoutben@gmail.com


Tuning: Open C (CGCGCE)

****************************
Legend
h = hammer on
p = pull off
/ = slide up
\ = slide down
b = bend
+ = harmonic
*****************************


e|-------|-----------------------|
C|-------|-----------------------|
G|--7p0--|--5p3p0----------------|
C|--7p0--|--------0h5p3p0--------|
G|--5p0--|----------------0h3h5--|
C|-------|-----------------------|


e|---------------------------------|---------------------------------|
C|---------------------------------|---------------------------------|
G|------5b--------5----------------|------5b--------5----------------|
C|------------0--------------------|------------0--------------------|
G|------5b------5-------5-------5--|------5b------5-------5-------5--|
C|--0-------0-------0-------0------|--0-------0-------0-------0------|


e|----------------0----------------|----------------0----------------|
C|------0-----------------0--------|------0-----------------0-------0|
G|------------3-------3-------3----|------------3-------3-------3----|
C|------0-------0-------0-------0--|------0-------0-------0-------0--|
G|---------------------------------|---------------------------------|
C|--3-------3-------3-------3------|--3-------3-------3-------3------|


e|---------------------------------|---------------------------------|
C|---------------------------------|---------------------------------|
G|------5b--------5----------------|------5b--------5----------------|
C|------------0--------------------|------------0--------------------|
G|------5b------5-------5-------5--|------5b------5-------5-------5--|
C|--0-------0-------0-------0------|--0-------0-------0-------0------|


e|----------------0----------------|----------------0----------------|
C|------0-----------------0--------|------0-----------------0-------0|
G|------------3-------3-------3----|------------3-------3-------3----|
C|------0-------0-------0-------0--|------0-------0-------0-------0--|
G|---------------------------------|---------------------------------|
C|--3-------3-------3-------3------|--3-------3-------3-------3------|


e|------3----/5----/8----\5----\3--|------3----/5-----0--------------|
C|------2----/4----/7----\4----\2--|------2----/4-----0--------------|
G|---------------------------------|---------------------------------|
C|------0-------0-------0-------0--|------0-------0-------0-------0--|
G|---------------------------------|---------------------------------|
C|--0-------0-------0-------0------|--0-------0-------0-------0------|


e|------3----/5----/8----\5----\3--|------3----/5----/8----\5-----8--|
C|------2----/4----/7----\4----\2--|------2----/4----/7----\4-----7--|
G|---------------------------------|------------------------------5--|
C|------0-------0-------0-------0--|------0-------0-------0-------0--|
G|---------------------------------|---------------------------------|
C|--0-------0-------0-------0------|--0-------0-------0-------0------|


e|------3----/5----/8----\5----\3--|------3----/5-----0--------------|
C|------2----/4----/7----\4----\2--|------2----/4-----0--------------|
G|---------------------------------|---------------------------------|
C|------0-------0-------0-------0--|------0-------0-------0-------0--|
G|---------------------------------|---------------------------------|
C|--0-------0-------0-------0------|--0-------0-------0-------0------|


e|--------0---------------0--------|--------0---------------0--------|
C|----------------0---------------0|----------------0---------------0|
G|----5----\--2----/--5----/--7----|-\-5-----\--2----/-5-----/--7----|
C|------0-------0-------0-------0--|------0-------0-------0-------0--|
G|---------------------------------|---------------------------------|
C|--5------\2------/5------/7------|-\5------\2------/5------/7------|


e|--------0---------------0--------|--------0---------------0--------|
C|----------------0---------------0|----------------0---------------0|
G|-\--5----\--2----/--5----/--7----|-\-5-----\--2----/-5-----/--7----|
C|------0-------0-------0-------0--|------0-------0-------0-------0--|
G|---------------------------------|---------------------------------|
C|-\5------\2------/5------/7------|-\5------\2------/5------/7------|


e|------3----/5----/8----\5----\3--|------3----/5-----0--------------|
C|------2----/4----/7----\4----\2--|------2----/4-----0--------------|
G|---------------------------------|---------------------------------|
C|------0-------0-------0-------0--|------0-------0-------0-------0--|
G|---------------------------------|---------------------------------|
C|--0-------0-------0-------0------|--0-------0-------0-------0------|


e|------3----/5----/8----\5----\3--|------3----/5----/8----\5-----8--|
C|------2----/4----/7----\4----\2--|------2----/4----/7----\4-----7--|
G|---------------------------------|------------------------------5--|
C|------0-------0-------0-------0--|------0-------0-------0-------0--|
G|---------------------------------|---------------------------------|
C|--0-------0-------0-------0------|--0-------0-------0-------0------|


e|------3----/5----/8----\5----\3--|------3----/5-----0--------------|
C|------2----/4----/7----\4----\2--|------2----/4-----0--------------|
G|---------------------------------|---------------------------------|
C|------0-------0-------0-------0--|------0-------0-------0-------0--|
G|---------------------------------|---------------------------------|
C|--0-------0-------0-------0------|--0-------0-------0-------0------|


e|--------0---------------0--------|--------0---------------0--------|
C|----------------0---------------0|----------------0---------------0|
G|----5----\--2----/--5----/--7----|-\-5-----\--2----/-5-----/--7----|
C|------0-------0-------0-------0--|------0-------0-------0-------0--|
G|---------------------------------|---------------------------------|
C|--5------\2------/5------/7------|-\5------\2------/5------/7------|


e|--------0---------------0--------|--------0---------------0--------|
C|----------------0---------------0|----------------0---------------0|
G|-\--5----\--2----/--5----/--7----|-\-5-----\--2----/-5-----/--7----|
C|------0-------0-------0-------0--|------0-------0-------0-------0--|
G|---------------------------------|---------------------------------|
C|-\5------\2------/5------/7------|-\5------\2------/5------/7------|

 |...different rhythm...
e|---------------------------------|---------------------------------|
C|---------------------------------|---------------------------------|
G|------5-------3-------7-------3--|------5-------5-------3---/---9--|
C|------0-------0-------0-------0--|------0-------0-------0-------0--|
G|---------------------------------|---------------------------------|
C|--0-------0-------0-------0------|--0-------0-------0-------0------|


e|---------------------------------|---------------------------------|
C|---------------------------------|---------------------------------|
G|------9-------9-------5-------3--|------7-------3-------5-------5--|
C|------0-------0-------0-------0--|------0-------0-------0-------0--|
G|---------------------------------|---------------------------------|
C|--0-------0-------0-------0------|--0-------0-------0-------0------|


e|--------------5+--7+--12+--|
C|--------------5+--7+--12+--|
G|------3-------5+--7+--12+--|
C|------0-------5+--7+--12+--|
G|---------------------------|
C|--0-------0----------------|


e|---------------------------------|---------------------------------|
C|---------------------------------|---------------------------------|
G|------5-------3-------7-------3--|------5-------5-------3---/---9--|
C|------0-------0-------0-------0--|------0-------0-------0-------0--|
G|---------------------------------|---------------------------------|
C|--0-------0-------0-------0------|--0-------0-------0-------0------|


e|---------------------------------|---------------------------------|
C|---------------------------------|---------------------------------|
G|------9-------9-------5-------3--|------7-------3-------5-------5--|
C|------0-------0-------0-------0--|------0-------0-------0-------0--|
G|---------------------------------|---------------------------------|
C|--0-------0-------0-------0------|--0-------0-------0-------0------|


e|-----------------------------|
C|-----------------------------|
G|------3-------0--------------|
C|------0-------0--------------|
G|-----------------------------|
C|--0-------0-------0---0---0--|

 |...back to the normal rhythm...
e|--------0---------------0--------|--------0---------------0--------|
C|----------------0---------------0|----------------0---------------0|
G|----5----\--2----/--5----/--7----|-\-5-----\--2----/-5-----/--7----|
C|------0-------0-------0-------0--|------0-------0-------0-------0--|
G|---------------------------------|---------------------------------|
C|--5------\2------/5------/7------|-\5------\2------/5------/7------|


e|--------0---------------0--------|--------0---------------0--------|
C|----------------0---------------0|----------------0---------------0|
G|-\--5----\--2----/--5----/--7----|-\-5-----\--2----/-5-----/--7----|
C|------0-------0-------0-------0--|------0-------0-------0-------0--|
G|---------------------------------|---------------------------------|
C|-\5------\2------/5------/7------|-\5------\2------/5------/7------|


e|----------------0---------------0|---------------------------------|
C|------0---------------0----------|------0---------0-------0-------0|
G|------------0---------------0----|------------0-------0-------0----|
C|------5-------5--\----2-------2--|-/----9-------9-------9-------9--|
G|---------------------------------|---------------------------------|
C|--5-------5------\2-------2------|-/9-------9-------9-------9------|


e|----------------0---------------0|---------------------------------|
C|------0---------------0----------|------0---------0-------0-------0|
G|------------0---------------0----|------------0-------0-------0----|
C|------5-------5--\----2-------2--|-/----9-------9-------9-------9--|
G|---------------------------------|---------------------------------|
C|--5-------5------\2-------2------|-/9-------9-------9-------9------|


e|----------------0---------------0|---------------------------------|
C|------5----------\----2----------|------0---------0-------0-------0|
G|------------0---------------0----|------------0-------0-------0----|
C|------5-------5--\----2-------2--|-/----9-------9-------9-------9--|
G|---------------------------------|---------------------------------|
C|--5-------5------\2-------2------|-/9-------9-------9-------9------|


e|----------------0---------------0|---------------------------------|
C|------5----------\----2----------|------0---------0-------0-------0|
G|------------0---------------0----|------------0-------0-------0----|
C|------5-------5--\----2-------2--|-/----9-------9-------9-------9--|
G|---------------------------------|---------------------------------|
C|--5-------5------\2-------2------|-/9-------9-------9-------9------|


e|---------------------------------|--------0------------------------|
C|---------------------------------|------------------------0--------|
G|---------------------------------|----0---------------0------------|
C|------0-------0-------0-------0--|------0-------0-------0-------0--|
G|---------------------------------|---------------------------------|
C|--0-------0-------0-------0------|--0-------0-------0-------0------|


e|--------0------------------------|--------0------------------------|
C|----------------0----------------|------------------------0--------|
G|----0-------0--------------------|----0---------------0------------|
C|------0-------0-------0-------0--|------0-------0-------0-------0--|
G|---------------------------------|---------------------------------|
C|--0-------0-------0-------0------|--0-------0-------0-------0------|


e|--------0------------------------|
C|----------------0----------------|
G|----0-------0--------------------|
C|------0-------0-------0-------0--|
G|---------------------------------|
C|--0-------0-------0-------0------|


e|--------7------------------------|--------5------------------------|
C|----------------5----------------|----------------4----------------|
G|----0-------0--------------------|----0-------0--------------------|
C|------0-------0-------0-------0--|------0-------0-------0-------0--|
G|---------------------------------|---------------------------------|
C|--0-------0-------0-------0------|--0-------0-------0-------0------|


e|--------7------------------------|--------5------------------------|
C|----------------5----------------|----------------4----------------|
G|----0-------0--------------------|----0-------0--------------------|
C|------0-------0-------0-------0--|------0-------0-------0-------0--|
G|---------------------------------|---------------------------------|
C|--0-------0-------0-------0------|--0-------0-------0-------0------|


e|--------3------------------------|--------0------------------------|
C|----------------2----------------|----------------0----------------|
G|----0-------0--------------------|----0-------0--------------------|
C|------0-------0-------0-------0--|------0-------0-------0-------0--|
G|---------------------------------|---------------------------------|
C|--0-------0-------0-------0------|--0-------0-------0-------0------|


e|----------0---------------0------|----------0---------------0------|
C|--------------0---------------0--|--------------0---------------0--|
G|---------------------------------|---------------------------------|
C|------0---------------0----------|------0---------------0----------|
G|---------------------------------|---------------------------------|
C|--0---------------0--------------|--0---------------0--------------|


e|--12+-----12+-----12+-----12+----|--12+-----12+-----12+-----12+----|
C|------12+-----12+-----12+-----12+|------12+-----12+-----12+-----12+|
G|--------------------------12+----|--------------------------12+----|
C|----------12+--------------------|----------12+--------------------|
G|------------------12+------------|------------------12+------------|
C|--12+----------------------------|--12+----------------------------|


e|--7+------7+------7+------7+-----|--7+------7+------7+------7+-----|
C|------7+------7+------7+------7+-|------7+------7+------7+------7+-|
G|--------------------------7+-----|--------------------------7+-----|
C|----------7+---------------------|----------7+---------------------|
G|------------------7+-------------|------------------7+-------------|
C|--7+-----------------------------|--7+-----------------------------|


e|--12+-----12+-----12+-----12+----|--12+-----12+-----12+-----12+----|
C|------12+-----12+-----12+-----12+|------12+-----12+-----12+-----12+|
G|--------------------------12+----|--------------------------12+----|
C|----------12+--------------------|----------12+--------------------|
G|------------------12+------------|------------------12+------------|
C|--12+----------------------------|--12+----------------------------|

                     ...slow down to end...|
e|--12+-----12+-----12+-----12+----|--12+--|
C|------12+-----12+-----12+-----12+|--12+--|
G|--------------------------12+----|--12+--|
C|----------12+--------------------|--12+--|
G|------------------12+------------|--12+--|
C|--12+----------------------------|--12+--|






*************************************************************
References for Song:
August Oster on Facebook:
https://www.facebook.com/AugustOstermusicandart
August Oster on icompositions:
http://www.icompositions.com/artists/August_Oster/
August Oster on Soundcloud:
https://soundcloud.com/august-oster
August Oster on YouTube:
https://www.youtube.com/channel/UChacbzLpuUUVIod_Z01Gy5g
*************************************************************
Добавлено: 25.08.2013
Другие материалы по этой песне:
  • Аккорды и текст

Страница создана 25.08.2013
http://primanota.ru/misc-unsigned-bands/august-oster-frog-town-chords.htm
Привет, Гость.
Предлагаем пройти революционный курс по гитаре.
Подарок от PrimaNota.Ru, забирай!