PrimaNota.ru - самый крупный в мире бесплатный архив песенных текстов, аккордов, табулатур и нот


Misc Unsigned Bands - August Oster - Dressed In Moonlight - таба

Регистрация Запомнить меня
Войти через:  Facebook Google Twitter Vk Yandex Mail.ru

Misc Unsigned Bands - August Oster - Dressed In Moonlight - таба

Печатать
Просмотров: 52
-----------------------------------------------------------------------------
                       Dressed In Moonlight - August Oster
-----------------------------------------------------------------------------

Tabbed by: August Oster
Email: osterhoutben@gmail.com

Tuning: Open D (DADF#AD)

*******************************
Legend
h = harmonic
p = pull off
/ = slide up
\ = slide down
b = bend
+ = harmonic
x = open string palm mute
*******************************



d |------------------------------|--------------------------|
A |-----------7b-------------7b--|--------------0-----------|
F#|-----5------b-------5------b--|--------0-----------0-----|
D |--------0--------------0------|----5-5----5-----5-----0--|
A |--7--------7b----7--------7b--|--7-----------------------|
D |------------------------------|--------------------------|


d |------------------------------|------------------------------------|
A |----------7b---------------0--|------------------------0-----------|
F#|----5------b---------0--------|-----0------------0-----------0-----|
D |-------0---------5-5----5-----|--5-----5-----5-5----5-----5-----5--|
A |--7-------7b---7--------------|------------7-----------------------|
D |------------------------------|------------------------------------|


d |--------0---------------0--------|-------------------------------------|
A |--7---------------5-------4---2--|--------------0--------------------7b|
F#|----0-------0-------0------------|--------0-----------0--------5------b|
D |------5-------0-------0----------|----5-5----5-----5-----0--------0----|
A |--7-------7-------5-------4---2--|-/7-----------------------7--------7b|
D |---------------------------------|-------------------------------------|


d |--------------------------|--------------------------|
A |--------------0-----------|--------------0-----------|
F#|--------0-----------0-----|--------0-----------0-----|
D |----5-5----5-----5-----5--|----5-5----5-----5-----5--|
A |--7-----------------------|--7-----------------------|
D |--------------------------|--------------------------|


d |--------0---------------0--------|---------------------------------|
A |--7---------------5-------4---2--|---------------------------------|
F#|----0-------0-------0------------|---------------------------------|
D |------5-------0-------0----------|------2--/----4--/----5--/----7--|
A |--7-------7-------5-------4---2--|----0---0---0---0---0---0---0---0|
D |---------------------------------|--2------/4------/5------/7------|


d |---------------------------------|
A |---------------------------------|
F#|---------------------------------|
D |-\----2--/----4--/----5--/----7--|
A |----0---0---0---0---0---0---0---0|
D |-\2------/4------/5------/7------|


d |---------------------------------|-------------------------|
A |------9-----7---5---0------------|-------------------------|
F#|---------------------------------|------5-/-----7-\-----5--|
D |------0-------0-------0-------0--|------0-------0-------0--|
A |---------------------------------|-------------------------|
D |--9-------7-------5-------5------|--5-----/-7-----\-5------|


d |-----------------|
A |-----------------|
F#|------0----------|
D |------0-------0--|
A |-----------------|
D |--0-------0------|


d |---------------------------------|-------------------------|
A |------9-----7---5---0------------|-------------------------|
F#|---------------------------------|------5-/-----7-\-----5--|
D |------0-------0-------0-------0--|------0-------0-------0--|
A |---------------------------------|-------------------------|
D |--9-------7-------5-------5------|--5-----/-7-----\-5------|


d |-----------------|
A |-----------------|
F#|------0----------|
D |------0-------0--|
A |-----------------|
D |--0-------0------|


d |------0--------------------------|------0--------------------------|
A |-----0----------2/--4--\2---0----|-----0----------2/--4--\2---0----|
F#|------------0--------------------|------------0--------------------|
D |------0-------0-------0----------|------0-------0-------0----------|
A |---------------------------------|---------------------------------|
D |--0h2-----2------/4----\--2------|--0h2-----2------/4----\--2------|


d |------0--------------------------|------0--------------------------|
A |-----0----------2/--4--\2---0----|-----0----------2/--4--\2---0----|
F#|------------0--------------------|------------0--------------------|
D |------0-------0-------0----------|------0-------0-------0----------|
A |---------------------------------|---------------------------------|
D |--0h2-----2------/4----\--2------|--0h2-----2------/4----\--2------|


d |---------------------------------|
A |---------------------------------|
F#|---------------------------------|
D |------x-------x-------x-------x--|
A |---------------------------------|
D |--x-------x-------x-------x------|


d |---------------------------------|------0h2h4----------------------|
A |------5-----4-/-9---0------------|------------0h2h4----------------|
F#|---------------------------------|------------------0--------------|
D |------x-------x-------x-------x--|------x---------------x-------x--|
A |---------------------------------|---------------------------------|
D |--x-------x-------x-------x------|--x-----------------------x------|


d |---------------------------------|------0h5h7-------0--------------|
A |------5-----4-/-9---0------------|---------------------------------|
F#|---------------------------------|------------0h5h7----------------|
D |------x-------x-------x-------x--|------x---------------x-------x--|
A |---------------------------------|---------------------------------|
D |--x-------x-------x-------x------|--x-----------------------x------|


d |---------------------------------|------0h2h4----------------------|
A |------5-----4-/-9---0------------|------------0h2h4----------------|
F#|---------------------------------|------------------0--------------|
D |------x-------x-------x-------x--|------x---------------x-------x--|
A |---------------------------------|---------------------------------|
D |--x-------x-------x-------x------|--x-----------------------x------|


d |---------------------------------|------0h5h7-------0--------------|
A |------5-----4-/-9---0------------|---------------------------------|
F#|---------------------------------|------------0h5h7----------------|
D |------x-------x-------x-------x--|------x---------------x-------x--|
A |---------------------------------|---------------------------------|
D |--x-------x-------x-------x------|--x-----------------------x------|


d |------12+------------------------|------12+------------------------|
A |------------7+----------12+------|------------7+-------------------|
F#|------------------7+----------12+|------------------7+-------------|
D |------x-------x-------x-------x--|------x-------x-------x-------x--|
A |---------------------------------|---------------------------------|
D |--x-------x-------x-------x------|--x-------x-------x-------x------|


d |------12+------------------------|----------------------5+---------|
A |------------7+---------12+-------|--------------------------5+-----|
F#|------------------7+----------12+|---------------------------------|
D |------x-------x-------x-------x--|------x-------x-------x-------x--|
A |---------------------------------|---------------------------------|
D |--x-------x-------x-------x------|--x-------x-------x-------x------|


d |------12+------------------------|------12+------------------------|
A |------------7+----------12+------|------------7+-------------------|
F#|------------------7+----------12+|------------------7+-------------|
D |------x-------x-------x-------x--|------x-------x-------x-------x--|
A |---------------------------------|---------------------------------|
D |--x-------x-------x-------x------|--x-------x-------x-------x------|


d |------12+------------------------|----------------------5+---------|
A |------------7+---------12+-------|--------------------------5+-----|
F#|------------------7+----------12+|---------------------------------|
D |------x-------x-------x-------x--|------x-------x-------x-------0--|
A |---------------------------------|---------------------------------|
D |--x-------x-------x-------x------|--x-------x-------x-------x------|


d |---------------------------------|-------------------------|
A |------9-----7---5---0------------|-------------------------|
F#|---------------------------------|------5-/-----7-\-----5--|
D |------0-------0-------0-------0--|------0-------0-------0--|
A |---------------------------------|-------------------------|
D |--9-------7-------5-------5------|--5-----/-7-----\-5------|


d |-----------------|
A |-----------------|
F#|------0----------|
D |------0-------0--|
A |-----------------|
D |--0-------0------|


d |---------------------------------|-------------------------|
A |------9-----7---5---0------------|-------------------------|
F#|---------------------------------|------5-/-----7-\-----5--|
D |------0-------0-------0-------0--|------0-------0-------0--|
A |---------------------------------|-------------------------|
D |--9-------7-------5-------5------|--5-----/-7-----\-5------|


d |-----------------|
A |-----------------|
F#|------0----------|
D |------0-------0--|
A |-----------------|
D |--0-------0------|


d |------0--------------------------|------0--------------------------|
A |-----0----------2/--4--\2---0----|-----0----------2/--4--\2---0----|
F#|------------0--------------------|------------0--------------------|
D |------0-------0-------0----------|------0-------0-------0----------|
A |---------------------------------|---------------------------------|
D |--0h2-----2------/4----\--2------|--0h2-----2------/4----\--2------|


d |------0--------------------------|------0--------------------------|
A |-----0----------2/--4--\2---0----|-----0----------2/--4--\2---0----|
F#|------------0--------------------|------------0--------------------|
D |------0-------0-------0----------|------0-------0-------0----------|
A |---------------------------------|---------------------------------|
D |--0h2-----2------/4----\--2------|--0h2-----2------/4----\--2------|


d |-------------------0------------------|
A |----------0-----------------0---------|
F#|-------------------------------------0|
D |------0h2------0h2------0h2------0h2--|
A |--0h4------0h4------0h4------0h4------|
D |--------------------------------------|


d |-------------------0------------------|
A |----------0-----------------0---------|
F#|-------------------------------------0|
D |------0h2------0h2------0h2------0h2--|
A |--0h4------0h4------0h4------0h4------|
D |--------------------------------------|


d |------------------------|
A |--4-/-7----4--4--4-/-7--|
F#|--0---0----0--0--0---0--|
D |--2-/-5----2--2--2-/-5--|
A |--4-/-7----4--4--4-/-7--|
D |--0---0----0--0--0---0--|


d |------------------------------|--------------------------|
A |-----------7b-------------7b--|--------------0-----------|
F#|-----5------b-------5------b--|--------0-----------0-----|
D |--------0--------------0------|----5-5----5-----5-----5--|
A |--7--------7b----7--------7b--|--7-----------------------|
D |------------------------------|--------------------------|


d |--------------------------|--------0---------------0--------|
A |--------------0-----------|--7---------------5-------4---2--|
F#|--------0-----------0-----|----0-------0-------0------------|
D |----5-5----5-----5-----5--|------5-------0-------0----------|
A |--7-----------------------|--7-------7-------5-------4---2--|
D |--------------------------|---------------------------------|
           ...repeat last part faster and faster, as many
           times as you want and finish with open strum.......|                                    
d |-------------------------|---------------------------------|--0--|
A |-------------------------|---------------------------------|--0--|
F#|-------------------------|---------------------------------|--0--|
D |--------2/------4/------5|--------5-------5-------5-------5|--0--|
A |----0-------0-------0----|----0-------0-------0-------0----|--0--|
D |--2---2--/4---4--/5---5--|--5---5---5---5---5---5---5---5--|--0--|





*******************************************************************
References for the song:
August Oster on Facebook:
https://www.facebook.com/AugustOstermusicandart
August Oster on icompositions:
http://www.icompositions.com/artists/August_Oster/
August Oster on Soundcloud:
https://soundcloud.com/august-oster
August Oster on YouTube:
https://www.youtube.com/channel/UChacbzLpuUUVIod_Z01Gy5g
*******************************************************************
Добавлено: 03.09.2013
Другие материалы по этой песне:
  • Аккорды и текст

Страница создана 03.09.2013
http://primanota.ru/misc-unsigned-bands/august-oster-dressed-in-moonlight-chords.htm
Привет, Гость.
Предлагаем пройти революционный курс по гитаре.
Подарок от PrimaNota.Ru, забирай!