PrimaNota.ru - самый крупный в мире бесплатный архив песенных текстов, аккордов, табулатур и нот


Misc Unsigned Bands - August Oster - Bearded Fox - таба

Регистрация Запомнить меня
Войти через:  Facebook Google Twitter Vk Yandex Mail.ru

Misc Unsigned Bands - August Oster - Bearded Fox - таба

Печатать
Просмотров: 45
-----------------------------------------------------------------------------
                           Bearded Fox - August Oster
-----------------------------------------------------------------------------

Tabbed by: August Oster
Email: osterhoutben@gmail.com

Tuning: Open C (CGCGCE)

****************************
Legend
h = hammer on
p = pull off
/ = slide up
\ = slide down
b = bend
+ = harmonic
****************************



e|---------------------------------|---------------------------------|
C|---------------------------------|---------------------------------|
G|---------------------------------|----5----\4-------4-------4------|
C|----------0---------------0------|--------0-0-------0-------0------|
G|---------------------------------|------5--\4-------4-------4------|
C|--0---------------0--------------|--0-------0-------0-------0------|

                       ......pause                       ....let ring|
e|---------------------------------|---------------------------------|
C|---------------------------------|---------------------------------|
G|-\2-------2-------2p0-----0------|--0-------0-------0-------0------|
C|--0-------0-------0-------0------|--2-------2-------2-------0------|
G|-\2-------2-------2p0-----0------|--2-------2-------2-------0------|
C|--0-------0-------0-------0------|--0-------0-------0-------0------|


e|---------------------------------|---------------------------------|
C|---------------------------------|---------------------------------|
G|---------------------------------|----5----\4-------4-------4------|
C|----------0---------------0------|--------0-0-------0-------0------|
G|---------------------------------|------5--\4-------4-------4------|
C|--0---------------0--------------|--0-------0-------0-------0------|

                       ......pause                       ....let ring|
e|---------------------------------|---------------------------------|
C|---------------------------------|---------------------------------|
G|-\2-------2-------2p0-----0------|--0-------0-------0-------0------|
C|--0-------0-------0-------0------|--2-------2-------2-------0------|
G|-\2-------2-------2p0-----0------|--2-------2-------2-------0------|
C|--0-------0-------0-------0------|--0-------0-------0-------0------|


e|------5--------------------------|-/----7--------------------------|
C|------------------------0--------|------------------------0--------|
G|----------------5----------------|-/--------------7----------------|
C|------0-----0-------0-------0----|------0-----0-------0-------0----|
G|--------------5-------5-------5--|-/------------7-------7-------7--|
C|--0-------0-------0-------0------|--0-------0-------0-------0------|


e|------8--------------------------|----------------8-------7-------5|
C|------------------------0--------|--------0------------------------|
G|-/--------------9---------------9|---------------------------------|
C|------0-----0-------0-------0----|----0-------0-------0-------0----|
G|-/------------9-------9-------9--|------9-------9-------7-------5--|
C|--0-------0-------0-------0------|--0-------0-------0-------0------|


e|----------------5----------------|-/----7--------------------------|
C|------0-----------------0--------|------------------------0--------|
G|------------5-------5-------5----|-/--------------7----------------|
C|------0-------0-------0-------0--|------0-----0-------0-------0----|
G|---------------------------------|-/------------7-------7-------7--|
C|--0-------0-------0-------0------|--0-------0-------0-------0------|


e|------8--------------------------|----------------8-------8--------|
C|------------------------0--------|--------0------------------------|
G|-/--------------9---------------9|--------------------------------0|
C|------0-----0-------0-------0----|----0-------0-------0-------0----|
G|-/------------9-------9-------9--|------9-------9-------9-------9--|
C|--0-------0-------0-------0------|--0-------0-------0-------0------|

  .....timing is a little different....
e|---------------------------------|---------------------|
C|---------------------------------|---------------------|
G|---------------------------------|---------------------|
C|--------------0---------------0--|----------0-------0--|
G|---------------------------------|--------------0------|
C|--0--4/7--0-------0--4/7--0------|--7b--0--------------|


e|---------------------------------|---------------------|
C|---------------------------------|---------------------|
G|---------------------------------|---------------------|
C|--------------0---------------0--|----------0-------0--|
G|---------------------------------|--------------0------|
C|--0--4/7--0-------0--4/7--0------|--7b--0--------------|


e|---------------------------------------|
C|---------------------------------------|
G|---------------------------------------|
C|--------------0----------0----------0--|
G|---------------------------------------|
C|--0--4/7--0-----7\4--0-----4/7--0------|


e|---------------------------------|---------------------------------|
C|---------------------------------|---------------------------------|
G|---------------------------------|---------------------------------|
C|----------0-------------------0--|----------0-------------------0--|
G|--7b--0--------------------------|--7b--0--------------------------|
C|--------------2b--0---2b--0------|--------------2b--0---2b--0------|

  ....back to normal timing...
e|----------------0----------------|---------------------------------|
C|------5----------\----2p0-------4|------4-/------/9------\7------\5|
G|------------0---------------0----|------------0-------0-------0----|
C|------5-------5--\----2p0-----4--|------4-/-----7/------9\------7\-|
G|---------------------------------|---------------------------------|
C|--0-------0-------0-------0------|--0-------0-------0-------0------|


e|----------------0----------------|---------------------------------|
C|------5----------\----2p0-------4|------4-/------/9------\7------\5|
G|------------0---------------0----|------------0-------0-------0----|
C|------5-------5--\----2p0-----4--|------4-/-----7/------9\------7\-|
G|---------------------------------|---------------------------------|
C|--0-------0-------0-------0------|--0-------0-------0-------0------|


e|----------------0----------------|---------------------------------|
C|------5----------\----2p0-------4|------4-/-------7\------5\------4|
G|------------0---------------0----|------------0-------0-------0----|
C|------5-------5--\----2p0-----4--|------4-/-----7--\----5--\----4--|
G|---------------------------------|---------------------------------|
C|--0-------0-------0-------0------|--0-------0-------0-------0------|


e|-----------------|
C|-\------2-------0|
G|----0-------0----|
C|-\----2-------0--|
G|-----------------|
C|--0-------0------|

  ....timing is a little different...
e|---------------------------------|---------------------|
C|---------------------------------|---------------------|
G|---------------------------------|---------------------|
C|--------------0---------------0--|----------0-------0--|
G|---------------------------------|--------------0------|
C|--0--4/7--0-------0--4/7--0------|--7b--0--------------|


e|---------------------------------|---------------------|
C|---------------------------------|---------------------|
G|---------------------------------|---------------------|
C|--------------0---------------0--|----------0-------0--|
G|---------------------------------|--------------0------|
C|--0--4/7--0-------0--4/7--0------|--7b--0--------------|


e|---------------------------------|-----------------------------|
C|---------------------------------|-----------------------------|
G|---------------------------------|-----------------------------|
C|--------------0---------------0--|---------0----------------0--|
G|---------------------------------|--7b--0----------------------|
C|--0--4/7--0-------0--4/7--0------|------------2b--0--2b--0-----|


e|-----------------------------|
C|-----------------------------|
G|-----------------------------|
C|---------0----------------0--|
G|--7b--0----------------------|
C|------------2b--0--2b--0-----|

  ....back to normal timing...
e|---------------------------------|---------------------------------|
C|----5---4---2---0----------------|---------------------------------|
G|--------------------5---4-/-9---0|---------------------------------|
C|---------------------------------|----5---4---2---0----------------|
G|---------------------------------|--------------------5---4-/-9---0|
C|--0---0---0---0---0---0---0---0--|--0---0---0---0---0---0---0---0--|


e|---------------------------------|---------------------------------|
C|----5---4---2---0----------------|---------------------------------|
G|--------------------5---4-/-9---0|--------------------5\--4\--2---0|
C|---------------------------------|----5---4---2---0----------------|
G|---------------------------------|------------------5--\4--\2---0--|
C|--0---0---0---0---0---0---0---0--|--0---0---0---0------------------|


e|-----------------|
C|-----------------|
G|-----------------|
C|----5\--4\--2---0|
G|-----------------|
C|--5--\4--\2---0--|


e|----------------1+--------------1+|--------------------------12+-7+-|
C|------1+--------------1+----------|------1+------------------12+-7+-|
G|------------1+--------------1+----|--------------------------12+-7+-|
C|------1+------1+------1+------1+--|------1+--------1+------1+12+-7+-|
G|----------------------------------|------------1+1+----1+1+--12+-7+-|
C|--1+------1+------1+------1+------|--1+------1+------1+------12+-7+-|


e|----------------1+--------------1+|--------------------------12+-7+-|
C|------1+--------------1+----------|------1+------------------12+-7+-|
G|------------1+--------------1+----|--------------------------12+-7+-|
C|------1+------1+------1+------1+--|------1+--------1+------1+12+-7+-|
G|----------------------------------|------------1+1+----1+1+--12+-7+-|
C|--1+------1+------1+------1+------|--1+------1+------1+------12+-7+-|


e|----------------0---------------0|--------------------------12+-7+-|
C|------0---------------0----------|------0-------------------12+-7+-|
G|------------0---------------0----|--------------------------12+-7+-|
C|------0-------0-------0-------0--|------0---------0-------0-12+-7+-|
G|---------------------------------|------------0-0-----0-0---12+-7+-|
C|--0-------0-------0-------0------|--0-------0-------0-------12+-7+-|


e|----------------0---------------0|--------------------------12+-7+-|
C|------0---------------0----------|------0-------------------12+-7+-|
G|------------0---------------0----|--------------------------12+-7+-|
C|------0-------0-------0-------0--|------0---------0-------0-12+-7+-|
G|---------------------------------|------------0-0-----0-0---12+-7+-|
C|--0-------0-------0-------0------|--0-------0-------0-------12+-7+-|


e|----------------0----------------|----------------------------------|
C|------5----------\----2--------/9|------9----------9------\7------\5|
G|------------0---------------0----|-------------0-------0-------0----|
C|------0-------0-------0-------0--|------0--------0-------0-------0--|
G|---------------------------------|----------------------------------|
C|--5-------5------\2-------2----/-|--9--------9-------9----\--7----\-|


e|----------------0----------------|---------------------------------|
C|------5----------\----2---------0|------0---------5------\4------\2|
G|------------0---------------0----|------------0-------0-------0----|
C|------0-------0-------0-------0--|------0-------0-------0-------0--|
G|---------------------------------|---------------------------------|
C|--5-------5------\2-------2------|--0-------0-------5----\--4----\-|


e|---------------------------------|---------------------------------|
C|--------0-------7------\5------\4|-------\2------/9------\7------\5|
G|----0-------0-------0-------0----|----0-------0-------0-------0----|
C|------0-------0-------0-------0--|------0-------0-------0-------0--|
G|---------------------------------|---------------------------------|
C|--2-------0-------7----\--5----\-|--4----\--2----/--9----\--7----\-|


e|---------------------------------|---------------------------------|
C|-------\4------/12-----\11-----\9|-------\7-------7-------7------/9|
G|----0-------0-------0-------0----|----0-------0-------0-------0----|
C|------0-------0-------0-------0--|------0-------0-------0-------0--|
G|---------------------------------|---------------------------------|
C|--5----\--4----/--12---\--11---\-|--9----\--7-------7-------7----/-|

    ....pause|
e|-----------|
C|-------/16-|
G|----0------|
C|------0----|
G|-----------|
C|--9--------|

  ....timing is a little different...
e|---------------------------------|---------------------|
C|---------------------------------|---------------------|
G|---------------------------------|---------------------|
C|--------------0---------------0--|----------0-------0--|
G|---------------------------------|--------------0------|
C|--0--4/7--0-------0--4/7--0------|--7b--0--------------|


e|---------------------------------|---------------------|
C|---------------------------------|---------------------|
G|---------------------------------|---------------------|
C|--------------0---------------0--|----------0-------0--|
G|---------------------------------|--------------0------|
C|--0--4/7--0-------0--4/7--0------|--7b--0--------------|


e|---------------------------------|-----------------------------|
C|---------------------------------|-----------------------------|
G|---------------------------------|-----------------------------|
C|--------------0---------------0--|---------0----------------0--|
G|---------------------------------|--7b--0----------------------|
C|--0--4/7--0-------0--4/7--0------|------------2b--0--2b--0-----|


e|-----------------------------|
C|-----------------------------|
G|-----------------------------|
C|---------0----------------0--|
G|--7b--0----------------------|
C|------------2b--0--2b--0-----|

  ....back to normal timing...
e|---------------------------------|---------------------------------|
C|----5---4---2---0----------------|---------------------------------|
G|--------------------5---4-/-9---0|---------------------------------|
C|---------------------------------|----5---4---2---0----------------|
G|---------------------------------|--------------------5---4-/-9---0|
C|--0---0---0---0---0---0---0---0--|--0---0---0---0---0---0---0---0--|


e|---------------------------------|---------------------------------|
C|----5---4---2---0----------------|---------------------------------|
G|--------------------5---4-/-9---0|--------------------5\--4\--2---0|
C|---------------------------------|----5---4---2---0----------------|
G|---------------------------------|------------------5--\4--\2---0--|
C|--0---0---0---0---0---0---0---0--|--0---0---0---0------------------|


e|--------------1+-12+-|
C|--------------1+-12+-|
G|--------------1+-12+-|
C|----5\--4\--2-1+-12+-|
G|--------------1+-12+-|
C|--5--\4--\2---1+-12+-|



******************************************************************
References for the song:
August Oster on Facebook:
https://www.facebook.com/AugustOstermusicandart
August Oster on icompositions:
http://www.icompositions.com/artists/August_Oster/
August Oster on Soundcloud:
https://soundcloud.com/august-oster
August Oster on YouTube:
https://www.youtube.com/channel/UChacbzLpuUUVIod_Z01Gy5g
******************************************************************
Добавлено: 04.09.2013
Другие материалы по этой песне:
  • Аккорды и текст

Страница создана 04.09.2013
http://primanota.ru/misc-unsigned-bands/august-oster-bearded-fox-chords.htm
Привет, Гость.
Предлагаем пройти революционный курс по гитаре.
Подарок от PrimaNota.Ru, забирай!