PrimaNota.ru - самый крупный в мире бесплатный архив песенных текстов, аккордов, табулатур и нот


Misc Unsigned Bands - Attack On Nova - Cerebral Dream - аккорды и текст

Регистрация Запомнить меня
Войти через:  Facebook Google Twitter Vk Yandex Mail.ru

Misc Unsigned Bands - Attack On Nova - Cerebral Dream - аккорды и текст

Печатать
Просмотров: 91
Attack On Nova - Cerebral Dream
Misc Unsigned Bands
CEREBRAL DREAM
C# Standard Tuning
Chords only

Intro:
   and lets, Just, Take it by the minute, You might just find it's worth your time and 
find your way to win it,
but, Dont, doubt, all the words you hear, Because its just me in your cerebral dream..... Creating..

C#|-----------------8------6-------------------------------|
G#|-9-------5-------6------5-------------------------------|
E |-10------6-------6------5-------------------------------|   X3
B |-----------------6------6-------------------------------|
F#|-8-------4----------------------------------------------|
C#|--------------------------------------------------------|

Last measure to bridge into Pre-Verse:
                                          Every Thought you fear!!
C#|-----------------8------(6)--hangout------------4---4---------------|
G#|-9-------5-------6------(6)--hangout--------------------------------|
E |-10------6-------6------(6---hangout--------------------------------|   X1
B |-----------------6------(6)--hangout--------------------------------|
F#|-8-------4--------------------------------------3---4---------------|
C#|--------------------------------------------------------------------|

Pre-Verse:
C#|--------------------------------------------------------|
G#|--------------------------------------------------------|
E |------5--6----------------------------------------------|
B |-3----5--6--6---8--10-----------------------------------| X2
F#|-3----3--4--6---6--8------------------------------------|
C#|-1----------4-------------------------------------------|
-
Verse:
Another holy minute I think I might Break!
Just Hold yourself up you must stay awake!
You can seem to face the fact..
that..........Your Going nowhere fast.

C#|-1-------6-----------------0------------------------------|
G#|-1-------6--------8--------0---------1----6---------------|
E |-1-------6--------8--------0---------3----5---------------|
B |-3-------6--------8--------2---------2----3---------------| X2
F#|-3-------4--------6--------2---------3----4---------------|
C#|-1-------------------------0------------------------------|

Chorus:

C#|-------1------------------------------------------------------|
G#|-1-----2-------1------6---------------------------------------|
E |-1-----3-------3------5---------------------------------------|
B |-3-----3-------2------3---------------------------------------|
F#|-3-----1-------3------4---------------------------------------|
C#|-1------------------------------------------------------------|

REPEAT Intro:
              Lyrics: Nowhere to go, so why can't I see, Straight anymore, What's become of me....
REPEAT Bridge into Preverse     [no hangouts]
              Lyrics: And whats become of me!!
REPEAT: Pre-Verse
REPEAT: Verse into middle

Last Verse measure into Middle:
                 We're going no where fast, So caught up in the past!
C#|-------1--------------------------------------------------------|
G#|-1-----2-------1------6------------------1---6------------------|
E |-1-----3-------3------5------------------3---5------------------|
B |-3-----3-------2------3------------------2---3------------------|X1
F#|-3-----1-------3------4------------------3---4------------------|
C#|-1--------------------------------------------------------------|

Middle:
        Lead guitar is playing beginning of the middle
C#|--------------------------------------------------------|
G#|--------------------------------------------------------|
E |--------------------------------------------------------|
B |---8----6----5------------------------------------------|
F#|---6----4----3------------------------------------------|X2
C#|--------------------------------------------------------|

And I don't Get the chance to wake up and feel, All the little reminders that I hold so dear.
And I don't get the chance to wake up and feel all those little reminders that I hold 
so.. close to... My Heart!

C#|--------------------------------------------------------------|
G#|--------------------------------------------------------------|
E |--6----5---3---5----------------------------------------------|
B |--5----6---2---3----------------------------------------------|X2
F#|--6----4---3---4----------------------------------------------|
C#|--------------------------------------------------------------|

REPEAT CHORUS for the end. Repeats 4 extra measures until end note hangs
Lyrics: And we're all hoping! and Hoping ! for more. And we're all just hoping and hoping for more.
Добавлено: 09.07.2015
Другие материалы по этой песне:
  • Аккорды и текст

Страница создана 09.07.2015
http://primanota.ru/misc-unsigned-bands/attack-on-nova-cerebral-dream-chords.htm
Привет, Гость.
Предлагаем пройти революционный курс по гитаре.
Подарок от PrimaNota.Ru, забирай!