PrimaNota.ru - самый крупный в мире бесплатный архив песенных текстов, аккордов, табулатур и нот


Misc Unsigned Bands - Asma - Nothing Whole - аккорды и текст, видео

Регистрация Запомнить меня
Войти через:  Facebook Google Twitter Vk Yandex Mail.ru

Misc Unsigned Bands - Asma - Nothing Whole - аккорды и текст, видео

Печатать
Просмотров: 47
Asma - Nothing Whole
Misc Unsigned Bands
This is a song with distortion. It is in d-tuning: D,A,D,G,B,E. This song is
played fast. Good-luck. It is a really good song. There is a drum beat at the
beginning then the guitar comes in. 

Intro:
|----------------------------------|
|----------------------------------|
|*--------------------------------*|2x
|*--------------------------------*|
|----------------------------------|
|-0-10-9-0-8-7-0-6-5-0-4-3-0-3-2-0-|

|----------------------------------|
|----------------------------------|
|*--------------------------------*|2x
|*--------------------------------*|
|-10-9-0-8-7-0-6-5-0-4-3-0-3-2-0-0-|
|-10-9-0-8-7-0-6-5-0-4-3-0-3-2-0-0-|

Verse 1:
PM-----    Pm--------    Pm--------    Pm--------    Pm--------    Pm--------
-----------------------------------------------------------------------------
-----------------------------------------------------------------------------
-----------------------------------------------------------------------------
-----------------------------------------------------------------------------
--0-0-0-2-3-0-0-0-0-0-2-3-0-0-0-0-0-2-3-0-0-0-0-0-2-3-0-0-0-0-0-2-3-0-0-0-0-0
--0-0-0-2-3-0-0-0-0-0-2-3-0-0-0-0-0-2-3-0-0-0-0-0-2-3-0-0-0-0-0-2-3-0-0-0-0-0

   Pm--------    Pm--------    Pm----------
-------------------------------------------
-------------------------------------------
-------------------------------------------
-------------------------------------------
2-3-0-0-0-0-0-2-3-0-0-0-0-0-2-3-0-0-0-0-0-0
2-3-0-0-0-0-0-2-3-0-0-0-0-0-2-3-0-0-0-0-0-0

Post Verse:
 Pm---  Pm--  Pm--  Pm--  Pm--------
|-------------------------------------|
|-------------------------------------|
|*-----------------------------------*|2x
|*-0-0-6-0-0-5-0-0-4-0-0-3-0-0-0-0-0-*|
|--0-0-6-0-0-5-0-0-4-0-0-3-0-0-0-0-0--|
|--0-0-6-0-0-5-0-0-4-0-0-3-0-0-0-0-0--|

Verse 2:
PM-----    Pm--------    Pm--------    Pm--------    Pm--------    Pm--------
-----------------------------------------------------------------------------
-----------------------------------------------------------------------------
-----------------------------------------------------------------------------
-----------------------------------------------------------------------------
--0-0-0-2-3-0-0-0-0-0-2-3-0-0-0-0-0-2-3-0-0-0-0-0-2-3-0-0-0-0-0-2-3-0-0-0-0-0
--0-0-0-2-3-0-0-0-0-0-2-3-0-0-0-0-0-2-3-0-0-0-0-0-2-3-0-0-0-0-0-2-3-0-0-0-0-0

   Pm--------    Pm--------    Pm--------------
-----------------------------------------------
-----------------------------------------------
-----------------------------------------------
-----------------------------------------------
2-3-0-0-0-0-0-2-3-0-0-0-0-0-2-3-0-0-0-0-0-0-0-0
2-3-0-0-0-0-0-2-3-0-0-0-0-0-2-3-0-0-0-0-0-0-0-0

Chorus:
|-------------------------------------------------------------------|
|-------------------------------------------------------------------|
|*-----------------------------------------------------------------*|2x
|*-2-----2-----2-0-3-----3-----3-0-2-----2-----2---0-----0-----0-0-*|
|--2-----2-----2-0-3-----3-----3-0-2-----2-----2-0-0-----0-----0-0--|
|--0-0-0-0-0-0-0-0-3-3-3-3-3-3-3-0-2-2-2-2-2-2-2-0-0-0-0-0-0-0-0-0--|

Post-chorus:
|----------------------------------|
|----------------------------------|
|*--------------------------------*|2x
|*--------------------------------*|
|-0-10-9-0-8-7-0-6-5-0-4-3-0-3-2-0-|
|-0-10-9-0-8-7-0-6-5-0-4-3-0-3-2-0-|

Verse 3:
PM-----    Pm--------    Pm--------    Pm--------    Pm--------    Pm--------
-----------------------------------------------------------------------------
-----------------------------------------------------------------------------
-----------------------------------------------------------------------------
-----------------------------------------------------------------------------
--0-0-0-2-3-0-0-0-0-0-2-3-0-0-0-0-0-2-3-0-0-0-0-0-2-3-0-0-0-0-0-2-3-0-0-0-0-0
--0-0-0-2-3-0-0-0-0-0-2-3-0-0-0-0-0-2-3-0-0-0-0-0-2-3-0-0-0-0-0-2-3-0-0-0-0-0

   Pm--------    Pm--------    Pm--------------
-----------------------------------------------
-----------------------------------------------
-----------------------------------------------
-----------------------------------------------
2-3-0-0-0-0-0-2-3-0-0-0-0-0-2-3-0-0-0-0-0-0-0-0
2-3-0-0-0-0-0-2-3-0-0-0-0-0-2-3-0-0-0-0-0-0-0-0

Post Verse:
 Pm---  Pm--  Pm--  Pm--  Pm--------
|-------------------------------------|
|-------------------------------------|
|*-----------------------------------*|2x
|*-0-0-6-0-0-5-0-0-4-0-0-3-0-0-0-0-0-*|
|--0-0-6-0-0-5-0-0-4-0-0-3-0-0-0-0-0--|
|--0-0-6-0-0-5-0-0-4-0-0-3-0-0-0-0-0--|

Verse 4:
PM-----    Pm--------    Pm--------    Pm--------    Pm--------    Pm--------
-----------------------------------------------------------------------------
-----------------------------------------------------------------------------
-----------------------------------------------------------------------------
-----------------------------------------------------------------------------
--0-0-0-2-3-0-0-0-0-0-2-3-0-0-0-0-0-2-3-0-0-0-0-0-2-3-0-0-0-0-0-2-3-0-0-0-0-0
--0-0-0-2-3-0-0-0-0-0-2-3-0-0-0-0-0-2-3-0-0-0-0-0-2-3-0-0-0-0-0-2-3-0-0-0-0-0

   Pm--------    Pm--------    Pm--------------
-----------------------------------------------
-----------------------------------------------
-----------------------------------------------
-----------------------------------------------
2-3-0-0-0-0-0-2-3-0-0-0-0-0-2-3-0-0-0-0-0-0-0-0
2-3-0-0-0-0-0-2-3-0-0-0-0-0-2-3-0-0-0-0-0-0-0-0

Chorus:
|-------------------------------------------------------------------|
|-------------------------------------------------------------------|
|*-----------------------------------------------------------------*|2x
|*-2-----2-----2-0-3-----3-----3-0-2-----2-----2---0-----0-----0-0-*|
|--2-----2-----2-0-3-----3-----3-0-2-----2-----2-0-0-----0-----0-0--|
|--0-0-0-0-0-0-0-0-3-3-3-3-3-3-3-0-2-2-2-2-2-2-2-0-0-0-0-0-0-0-0-0--|

Bridge:
-----------------------------------------------------------------------------
-----------------------------------------------------------------------------
-----------------------------------------------------------------------------
-----------------------------------------------------------------------------
0-12-11-0-12-11-0-12-11-0-12-11-0-12-11-0-12-11-0-12-11-0-12-11-0-15-15-15-15
0-12-11-0-12-11-0-12-11-0-12-11-0-12-11-0-12-11-0-12-11-0-12-11-0-15-15-15-15

|-----------------------------------|
|-----------------------------------|
|*---------------------------------*|
Добавлено: 27.11.2013
Другие материалы по этой песне:
  • Аккорды и текст

Страница создана 27.11.2013
http://primanota.ru/misc-unsigned-bands/asma-nothing-whole-chords.htm
Привет, Гость.
Предлагаем пройти революционный курс по гитаре.
Подарок от PrimaNota.Ru, забирай!