PrimaNota.ru - самый крупный в мире бесплатный архив песенных текстов, аккордов, табулатур и нот


Misc Unsigned Bands - Andy Parks - River Of God - бас-таба, видео

Регистрация Запомнить меня
Войти через:  Facebook Google Twitter Vk Yandex Mail.ru

Misc Unsigned Bands - Andy Parks - River Of God - бас-таба, видео

Печатать
Просмотров: 56
Ok so the original song is done in another key but we lowered it to "G" so that our 
could sing it.  This is not including the piccalo solo part.

(Six measures of Drums and Keyboard going at 4/4 time.)

Intro:

G------9-7-------0--------------2-------0-------|   (x2)
D-----------------4-2-0--------0--0------4-2-0--|
A-/5---------/5----------/5---------/5----------|
D-----------------------------------------------|

Verses 1-3:
   Down the Mountain    the River Flows
G--0-----0------------2--------------|
D------------0--0-0-4--------------0-|
A---------------------------0--0-----|
D------------------------------------|

  And it brings refreshing  where ever it goes
G---------0------0----------2-----------------0------|
D--0---4------------0--0-0-4---------------0----4-0--|
A---------------------------------0-0--0-------------|
D----------------------------------------------------|

Repeat for sec part of verses

Through the vally and over the hills,
The river is rushing and the river is here!

Chorus (all 4 times)
   The River of God  set our feet a dancing
G------------------------------0--0----------2---|
D-------0--------0-------------------0--0-0-4----|
A------------------------------------------------|
D------------------------------------------------|

    The River of God fills our hearts with cheer
G-----------------------------------------------0-------|
D--------0---------0---0--------------------0----4-0----|
A-------------------------------0-------0-----------2-0-|
D-------------------------------------------------------|


   The River of God fills our mouths with laughter
G------------------------------0------0----------|
D-------0--------0--------------------------0--0-|
A------------------------------------------------|
D------------------------------------------------|

    And We Rejoyice for the River is here!
G--------4-4--2-------------0------------|
D--------------------4---4-----4---2--3--|
A----------------------------------------|
D----------------------------------------|

G-------2-------0-------|
D------0--0------4-2-0--|
A/5---------/5----------|
D-----------------------|

(Repeat the Verses with the other lyrics twice.  Then the 4th verse has the same lyrics 
the first but, the tabs are different)

    Down the mountains...
G---------------2--------------|
D--------0-0-0-4------0--0-0---|
A------2----------0-4--------0-|
D----5----------------------4--|

   and it brings refreashing...
G---------------2------------------|
D--------0-0-0-4------0--0---------|
A------2----------0-4------2-0-----|
D----5-------------------------4-0-|

Through the vallys...
G------------2--------------|
D-----0-0-0-4------0--0-0---|
A---2----------0-4--------0-|
D-5----------------------4--|

  The river is rushing
G------------2---|
D-----0-0-0-4----|
A---2------------|
D-5--------------|

 and the river is here
G---------------------|
D-----------------0---|
A----------0-0-0------|
D-------------------0-|

(Chorus)
   The River of God  set our feet a dancing
G------------------------------0--0----------2---|
D-------0--------0-------------------0--0-0-4----|
A------------------------------------------------|
D------------------------------------------------|

    The River of God fills our hearts with cheer
G-----------------------------------------------0-------|
D--------0---------0---0--------------------0----4-0----|
A-------------------------------0-------0-----------2-0-|
D-------------------------------------------------------|


   The River of God fills our mouths with laughter
G------------------------------0------0----------|
D-------0--------0--------------------------0--0-|
A------------------------------------------------|
D------------------------------------------------|

    And We Rejoyice for the River is here!
G--------4-4--2-------------0------------|
D--------------------4---4-----4---2--3--|
A----------------------------------------|
D----------------------------------------|

Tag:
   Yes we rejoyce for the river is here
G------9-7-------0--------------2-------0----6/7--|
D-----------------4-2-0--------0--0------4--------|
A-/5---------/5----------/5---------/5------------|
D-------------------------------------------------|

Well that's what I play when I play it at church on Sundays.  Now Hope it helps!


PS:  I'll post the chords we play later.  Have fun with it.

Peace Suckker(s)

C~ron Loya
Добавлено: 29.10.2013
Другие материалы по этой песне:
  • Аккорды и текст

Страница создана 29.10.2013
http://primanota.ru/misc-unsigned-bands/andy-parks-river-of-god-chords.htm
Привет, Гость.
Предлагаем пройти революционный курс по гитаре.
Подарок от PrimaNota.Ru, забирай!