PrimaNota.ru - самый крупный в мире бесплатный архив песенных текстов, аккордов, табулатур и нот


Misc Unsigned Bands - And Then I Turned To Seven - Forgotten - таба

Регистрация Запомнить меня
Войти через:  Facebook Google Twitter Vk Yandex Mail.ru

Misc Unsigned Bands - And Then I Turned To Seven - Forgotten - таба

Печатать
Просмотров: 44
song: forgotten(acoustic version)
artist: and then i turned to seven






intro:

   D Dsus D  Dsus-D    A       G   Dsus-D  
e---2-3-2-------3-2------------3--------3-2---|
B---3-3-3--- -3-----3--2-----2-3------3-------|
G---2-2-2---2----------2---2---0----2---------|
D---0-0-0-0------------2-2-----0--0-----------|
A----------------------0-------2--------------|
E------------------------------3--------------|

   D Dsus D  Dsus-D    A       G     
e---2-3-2-------3-2------------3-----|
B---3-3-3--- -3-----3--2-----2-3-----|
G---2-2-2---2----------2---2---0-----|
D---0-0-0-0------------2-2-----0-----|
A----------------------0-------2-----|
E------------------------------3-----|




VERSE
           D                     A
There was a time when all was perfect
    Bm                        G-A
no worries, but now that's blurry
           D                A
We had something that no one had
         Bm                        G-A
but it's all gone now, ain't that so sad


REFRAIN
	  D              Dsus
He came along, took you away,
 	       Bm                   A-G	   
he opened his arms wide, there you stayed
      D                 Dsus
You smiled, and waved goodbye,
               Bm                    A-G	Dsus-D-Dsus
and for the last time, I looked in your eyes


CHORUS
          D              Dsus
Love can fade, can break away,
         Bm            A-G
can be forgotten, but not replaced
   	    D                      Dsus
You might lose hope, you might lose faith
     Bm            A-G           A
but don't throw it all away, cause your afraid




   D Dsus D  Dsus-D    A       G   Dsus-D  
e---2-3-2-------3-2------------3--------3-2---|
B---3-3-3--- -3-----3--2-----2-3------3-------|
G---2-2-2---2----------2---2---0----2---------|
D---0-0-0-0------------2-2-----0--0-----------|
A----------------------0-------2--------------|
E------------------------------3--------------|

   D Dsus D  Dsus-D    A       G     
e---2-3-2-------3-2------------3-----|
B---3-3-3--- -3-----3--2-----2-3-----|
G---2-2-2---2----------2---2---0-----|
D---0-0-0-0------------2-2-----0-----|
A----------------------0-------2-----|
E------------------------------3-----|


VERSE
           D                  A
Now all I ask, is for him to care
 		 Bm               G-A
for him to treat you like I were always there
                   D                    A
But please don't love him, come back to me
     Bm                  G-A
I'm begging you, I'm on my knees


REFRAIN
	  D              Dsus
He came along, took you away,
 	       Bm                   A-G	   
he opened his arms wide, there you stayed
      D                 Dsus
You smiled, and waved goodbye,
               Bm                    A-G	Dsus-D-Dsus
and for the last time, I looked in your eyes


CHORUS
          D              Dsus
Love can fade, can break away,
         Bm            A-G
can be forgotten, but not replaced
   	    D                      Dsus
You might lose hope, you might lose faith
     Bm            A-G           A
but don't throw it all away, cause your afraid


D-A-Bm-G 2X

CHORUS
          D              Dsus
Love can fade, can break away,
         Bm            A-G
can be forgotten, but not replaced
   	    D                      Dsus
You might lose hope, you might lose faith
     Bm            A-G           
but don't throw it all away, 


CHORUS
          D              Dsus
Love can fade, can break away,
         Bm            A-G
can be forgotten, but not replaced
   	    D                      Dsus
You might lose hope, you might lose faith
     Bm            A-G           
but don't throw it all away, 
     Bm            A-G     	     
but don't throw it all away, 
     Bm            A-G          A
but don't throw it all away, cause your afraid




   D Dsus D  Dsus-D    A       G   Dsus-D  
e---2-3-2-------3-2------------3--------3-2---|
B---3-3-3--- -3-----3--2-----2-3------3-------|
G---2-2-2---2----------2---2---0----2---------|
D---0-0-0-0------------2-2-----0--0-----------|
A----------------------0-------2--------------|
E------------------------------3--------------|

   D Dsus D  Dsus-D    A       G     
e---2-3-2-------3-2------------3-----|
B---3-3-3--- -3-----3--2-----2-3-----|
G---2-2-2---2----------2---2---0-----|
D---0-0-0-0------------2-2-----0-----|
A----------------------0-------2-----|
E------------------------------3-----|




add me my friendster account
mykro85@yahoo.com
Добавлено: 18.10.2013
Другие материалы по этой песне:
  • Аккорды и текст

Страница создана 18.10.2013
http://primanota.ru/misc-unsigned-bands/and-then-i-turned-to-seven-forgotten-chords.htm
Привет, Гость.
Предлагаем пройти революционный курс по гитаре.
Подарок от PrimaNota.Ru, забирай!