PrimaNota.ru - самый крупный в мире бесплатный архив песенных текстов, аккордов, табулатур и нот


Misc Unsigned Bands - Altered View - I Dunno - бас-таба, видео

Регистрация Запомнить меня
Войти через:  Facebook Google Twitter Vk Yandex Mail.ru

Misc Unsigned Bands - Altered View - I Dunno - бас-таба, видео

Печатать
Просмотров: 60
                            i dunno! - Altered View
Tabbed by:Ben Walter 
E-mail:danwalter@verizon.net 

Tuning:DbAbDbGb

intro
G|-----------------------------------------------|
D|-----------------------------------------------|
A|------------1010101010101010-77777777-9999xx7/9|(X2)
E|12\99999999------------------------------------|

G|-------------7----------------------|
D|-----------79-97--------------------|
A|---------79-----97------------------|
E|99999999-----------77777777-99999999|(let ring)

G|------------------------------------|
D|---------7-7-7-7-22222222-----------|
A|99999999-------------------3-33-2-22|(X2)
E|------------------------------------|
verse 1
G|-------------------------------------|
D|---------5555-3333----------5555-3333|
A|55555555-----------55555555----------|
E|-------------------------------------|

G|---------------------------|
D|---------5555-3333-77777777|
A|55555555-------------------|
E|---------------------------|
chorus
G|---------------------------------------------------|
D|---------------------------------------------------|
A|------------10101010101010101010-77777777-9999xx7/9|
E|12/99999999----------------------------------------|

G|------------------------------------------------|
D|------------------------------------------------|
A|---------7x7x7x7x7x7x7x7x-33333333-12121212xx7/9|
E|99999999----------------------------------------|

G|-------------7----------------------|
D|-----------79-97--------------------|
A|---------79-----97------------------|
E|99999999-----------77777777-99999999|(let ring)
verse 2
G|-------------------------------------|
D|---------5555-3333----------5555-3333|
A|55555555-----------55555555----------|
E|-------------------------------------|

G|---------------------------|
D|---------5555-3333-77777777|(let ring)
A|55555555-------------------|
E|---------------------------|
break down
G|------------------------------------|
D|------------------------------------|
A|------------------------------------|
E|---7-------7-------7-------7--------|

G|-----------------------------------------|
D|-----------------------------------------|
A|12x12x12x12x12x12x12x12------------------|(X2)
E|------------------------15151515-12121212|

G|----------------------------------|
D|----------------------------------|
A|1212121212121212------------------|
E|-----------------15151515-12121212|

G|-----------------------|
D|-----------------------|
A|-----------------------|
E|1x1x1x1x1x1x1x1x-33333#|
chorus
G|---------------------------------------|
D|---------------------------------------|
A|------------88888888-55555555-7777xx5/7|
E|15\77777777----------------------------|

G|--------------------------------------------|
D|--------------------------------------------|
A|---------1010101010101010-77777777-9999xx7/9|
E|99999999------------------------------------|

G|-------------7-------------------------|
D|-----------79-97-----------------------|
A|---------79-----97---------------------|
E|99999999----------9-77777777-9999999#9#|(let ring)

| /  slide up
| \  slide down
| h  hammer-on
| p  pull-off
| ~  vibrato
| +  harmonic
| x  Mute note
| #  slap
Добавлено: 11.08.2013
Другие материалы по этой песне:
  • Аккорды и текст

Страница создана 11.08.2013
http://primanota.ru/misc-unsigned-bands/altered-view-i-dunno-chords.htm
Привет, Гость.
Предлагаем пройти революционный курс по гитаре.
Подарок от PrimaNota.Ru, забирай!