PrimaNota.ru - самый крупный в мире бесплатный архив песенных текстов, аккордов, табулатур и нот


Misc Unsigned Bands - Allen Vizzutti - Flamenco - таба

Регистрация Запомнить меня
Войти через:  Facebook Google Twitter Vk Yandex Mail.ru

Misc Unsigned Bands - Allen Vizzutti - Flamenco - таба

Печатать
Просмотров: 55
this melody was created for grade 8 trumpet so is played extremely fast.
 its a real nice piece to play on guitar aswell though as it is basically
 all in the first 5 frets of each string. i am currently trying to put the
 track on youtube for you to listen to and understand how fast it actually
is. any problems email me on (jaaquo@msn.com)

STANDARD TUNING                                                _________________________
                                                               | 1.                    |
e--------------------|--------------------|--------------------|---------------------| |
b--------------------|--------------------|--------------------|---------------------| |
g-0--0-0--0--1--3--1-|-0--0-0--0----------|-0--0-0--0--1--4--1-|---0--------------0-1|o|
d--------------------|------------3--1--3-|--------------------|------------0-1-3----|o|
a--------------------|--------------------|--------------------|------3-2-3----------| |
e--------------------|--------------------|--------------------|---------------------| |
______________
|2.
e-------------|-------------------|-------------------|-------------------|
b----0-1-0----|----8----6---------|----6----4---------|----4----3-1-------|
g-0-------1-0-|-5---------8--7--5-|-3---------6--5--3-|-1------------3--1-|
d-------------|-------------------|-------------------|-------------------|
a-------------|-------------------|-------------------|-------------------|
e-------------|-------------------|-------------------|-------------------|
                                          + = hold note
e-------------------|--------------|----------------|--------------------|
b----0-1-0----------|--------------|---4----3--1----|-3-4-3-1-3+++++++---|
g-0--------1-0------|-0+++++++++++-|-1------------3-|--------------------|
d-----------------1-|--------------|----------------|--------------------|
a---------------3---|--------------|----------------|--------------------|
e-------------------|--------------|----------------|--------------------|

e-----------|------------|----4----3----1-|--------------------|
b++++++-----|-1++++++++++|-3--------------|-4--3-1--0++++++++++|
g---------1-|------------|----------------|--------------------|
d------3----|------------|----------------|--------------------|
a-----------|------------|----------------|--------------------|
e-----------|------------|----------------|--------------------|

e--------------------|--------------------|--------------------|-------------|
b-1--1-0-1-3-4--3--1-|----------1-3--1--0-|------------1-------|-------------|
g--------------------|-3--3-1-3-----------|-1--1-0-1-3----4--2-|-3--0-1-0++++|
d--------------------|--------------------|--------------------|-------------|
a--------------------|--------------------|--------------------|-------------|
e--------------------|--------------------|--------------------|-------------|

e----------------------|----------------------|--------------------|
b---------1------------|----------------------|--------------------|
g------0-----0-0--0--0-|---------3------------|-1-1--1--1--------0-|
d----1-----------------|----0-3-----3-3--3--3-|------------1--3----|
a-3--------------------|-1--------------------|--------------------|
e----------------------|----------------------|--------------------|

e-----------------------|---------------|-----------|----0---------------|
b-----------------------|---------------|-----------|----------3--3-1-0--|
g-4-5--7--4-5--7--4-5-7-|-8--5++++++++++|-----------|-2-----2------------|
d-----------------------|---------------|-----------|--------------------|
a-----------------------|---------------|-----------|--------------------|
e-----------------------|---------------|-----------|--------------------|

e---------------------|-----------------|----------------|--------------------|
b-1-0----1--0-1-0-----|-----------------|----------------|------0-1---------0-|
g-----2-----------1---|-----------------|----------1-----|-2--2------0--0-2---|
d-------------------2-|-0--3--0--2++++++|-0--2--3----3-2-|--------------------|
a---------------------|-----------------|----------------|--------------------|
e---------------------|-----------------|----------------|--------------------|

e-----------------|--------0------------|------------------|-------------------------|
b-----------------|-1--1-3----0--0-1-3--|------0-1---------|-------------------------|
g------0-2--------|---------------------|-2--2------0++++++|-2--2-2-2--2-2-2--2-2----|
d-3--3-----2++++++|---------------------|------------------|-------------------------|
a-----------------|---------------------|------------------|-------------------------|
e-----------------|---------------------|------------------|-------------------------|

e--------------|-0------------------|--------------|----------------------|
b--------------|----3-1-0--3--1-0---|-1--0-1-0-----|----------------------|
g-2------------|------------------2-|----------2-1-|-2--2-2-2--2-2-2--2-2-|
d-------0--2---|--------------------|--------------|----------------------|
a----3---------|--------------------|--------------|----------------------|
e--------------|--------------------|--------------|----------------------|

e--------------|------------------|-------0-1-3-4++++|-5----0-------|
b--------------|----0--------1----|-0-1-3------------|------------3-|
g-2------------|-------1--------2-|------------------|---------2----|
d-------0--2---|-2--------3-------|------------------|--------------|
a----3---------|------------------|------------------|--------------|
e--------------|------------------|------------------|--------------|

e-3--1-0------------|-1------0------------|-0------------------|----------------------|
b--------3-1-0++++++|----1-3----3--0-1-3--|---3-1-0---0--------|-----------0--1--0----|
g-------------------|---------------------|---------2---1++++++|-2--2-2-2-------------|
d-------------------|---------------------|--------------------|----------------------|
a-------------------|---------------------|--------------------|----------------------|
e-------------------|---------------------|--------------------|----------------------|

e-------------------|-------0----------|-----------------|---------|
b-------------------|----1--------0--3-|-------1---------|---------|
g-2--2-2-2----------|-2--------0-------|----2------------|---------|
d-----------3--2--3-|------------------|-3--------2++++++|---------|
a-------------------|------------------|-----------------|---------|
e-------------------|------------------|-----------------|---------|

e| |---------------------|----------------|-------------------|--------------|
b| |----0-1-0---0--0---0-|----0-1-0---0---|---0-1-0-----0-1-0-|----0-1-0---0-|
g|o|----------2------2---|----------2-----|-0-----------------|----------2---|
d|o|-2-------------------|-3--------------|----------3--------|-2------------|
a| |---------------------|----------------|-------------------|--------------|
e| |---------------------|----------------|-------------------|--------------|

e---------------------|----------------|-------------------|--------------| |
b----0-1-0---0--0---0-|----0-1-0---0---|---0-1-0-----0-1-0-|--------0-----| |
g----------2------2---|----------2-----|-0-----------------|----1-2---2---|o|
d-2-------------------|-3--------------|----------3--------|-2----------0-|o|
a---------------------|----------------|-------------------|--------------| |
e---------------------|----------------|-------------------|--------------| |

e----0---------------|---------------------|-----------------|----------------|
b----------3--3-1-0--|-1-0----1--0-1-0-----|-----------------|----------------|
g-2-----2------------|-----2-----------1---|-----------------|----------1-----|
d--------------------|-------------------2-|-0--3--0--2++++++|-0--2--3----3-2-|
a--------------------|---------------------|-----------------|----------------|
e--------------------|---------------------|-----------------|----------------|

e----------------------|-------------0--3-|-4----0----|---------------||
b----------------------|----0--1--3-------|-----------|---------------||
g-2--2-2-2--2-2-2--2-2-|-2----------------|-----------|2--2-2-2--2----||
d----------------------|------------------|-----------|---------------||
a----------------------|------------------|-----------|---------------||
e----------------------|------------------|-----------|---------------||
Добавлено: 12.10.2013
Другие материалы по этой песне:
  • Аккорды и текст

Страница создана 12.10.2013
http://primanota.ru/misc-unsigned-bands/allen-vizzutti-flamenco-chords.htm
Привет, Гость.
Предлагаем пройти революционный курс по гитаре.
Подарок от PrimaNota.Ru, забирай!