PrimaNota.ru - самый крупный в мире бесплатный архив песенных текстов, аккордов, табулатур и нот


Misc Unsigned Bands - All Faces Down - Tribute - таба

Регистрация Запомнить меня
Войти через:  Facebook Google Twitter Vk Yandex Mail.ru

Misc Unsigned Bands - All Faces Down - Tribute - таба

Печатать
Просмотров: 121
-------------------------------------------------------------------------------
                             All Faces Down - Tribute
                           Album: Face The Truth (2011)
                               Genre: Post-Hardcore
-------------------------------------------------------------------------------

Tuning: Drop C# (C# G# C# F# A# D#)


Intro (0:01)
|---------------------------------------------------------------------------------|
|---------------------------------------------------------------------------------|
|---------------------------------------------------------------------------------|
|------------------------5-2-0-2--------------------------------------------------|
|0-2--2--0-2--2--0-2--2----------5-0--0-2--2--0-2--2--0-2--2----------------------|
|0-2--2--0-2--2--0-2--2---------------0-2--2--0-2--2--0-2--2----------------------|

Intro 2 (0:09). There is a second guitar, but I couldn't figure it's part out, sorry ;(

|---------------------------------------------------------------------------------|
|---------------------------------------------------------------------------------|
|---------------------------------------------------------------------------------|
|------------------------5-2-0-2--------------------------------------------------|
|0-2--2--0-2--2--0-2--2----------5-0--0-2--2--5-5--5--5-5--5----------------------|
|0-2--2--0-2--2--0-2--2---------------0-2--2--5-5--5--4-4--4----------------------|

|---------------------------------------------------------------------------------|
|---------------------------------------------------------------------------------|
|---------------------------------------------------------------------------------|
|------------------------5-2-0-2--------------------------------------------------|
|0-2--2--0-2--2--0-2--2----------5-0--0-2--2--5-5--5--5-5--5/\--------------------|
|0-2--2--0-2--2--0-2--2---------------0-2--2--5-5--5--4-4--4/\--------------------|

Verse (0:24)

|---------------------------------------------------------------------------------|
|---------------------------------------------------------------------------------|
|---------------------------------------------------------------------------------|
|---------------------------------------------------------------------------------|
|0-2--2--2-2-----0-2--2--2-2-----0-2--2--2-2-----0-2--2--2-5-5--5--5-5-5--5--5/\--|
|0-2--2--2-2-----0-2--2--2-2-----0-2--2--2-2-----0-2--2--2-5-5--5--5-4-4--4--4/\--|
 p p  p  p p     p p  p  p p     p p  p  p p     p p  p  p p p  p  p p p  p  p

Intro 2, Verse and Intro 2 again.

Interlude (1:25)

|---------------------------------------------------------------------------------|
|---------------------------------------------------------------------------------|
|--------------------------------------------<5>----------------------------------|
|---------------------------------------------------------------------------------|
|7~----7~----7~----7~----5~----5~----5~-------------------------- ----------------|
|---------------------------------------------------------------------------------|


|---------------------------------------------------------------------------------|
|---------------------------------------------------------------------------------|
|1616-16-x1616-16-x1616-16-x1616-16-x1414-14-x1414-14-x1414-14-x1414-14-x---------|
|---------------------------------------------------------------------------------|  x2  
|1414-14-x1414-14-x1414-14-x1414-14-x1212-12-x1212-12-x1212-12-x1212-12-x---------|
|---------------------------------------------------------------------------------|    

|---------------------------------------------------------------------------------|
|---------------------------------------------------------------------------------|
|-----------------------------------------------------------------5------7--9-----|
|------------------------------------------------------------------------------2~-|
|2-2-2-2-2-2-2-2-2-2-2-2-2-2-2-2-0-0-0-0-0-0-0-0-0-0-0-0-0-0-0-0--3--3v--5--7--2~-|
|2-2-2-2-2-2-2-2-2-2-2-2-2-2-2-2-0-0-0-0-0-0-0-0-0-0-0-0-0-0-0-0---------------2~-|

2:03

|---------------------------------------------------------------------------------|
|---------------------------------------------------------------------------------|
|---------------------------------------------------------------------------------|
|2--2-2----2--2-2----2--2-2----0--------------------------------------------------|
|2--2-2----2--2-2----2--2-2----0--------------------------------------------------|
|2--2-2----2--2-2----2--2-2----0--------------------------------------------------|

Bridge (2:08). Sorry I couldn't tab this part correctly. Somebody help?

Next 2 bars 2 times.

|---------------------------------------------------------------------------------|
|---------------------------------------------------------------------------------|
|---------------------------------------------------------------------------------|
|-------------------------------------------------(???)---------------------------|
|2--2--3-2-0-2-2--2--5-2-0-2-2--2--3-2-0-2-2--2--x-x-x-x--------------------------|
|2--2--3-2-0-2-2--2--5-2-0-2-2--2--3-2-0-2-2--2--x-x-x-x--------------------------|

|---------------------------------------------------------------------------------|
|---------------------------------------------------------------------------------|
|---------------------------------------------------------------------------------|
|---------------------------------------------(???)-----0~------------------------|
|2--2--3-2-0-2-2--2--5-2-0-2-2--2--3-2-0-2-x-x-x-x-x-x--0~--(2nd time)----------/\|
|2--2--3-2-0-2-2--2--5-2-0-2-2--2--3-2-0-2-x-x-x-x-x-x--0~----------------------/\|

Breakdown (2:39). Slow down.

|---------------------------------------------------------------------------------|
|---------------------------------------------------------------------------------|
|---------------------------------------------------------------------------------|
|---------------------------------------------------------------------------------|
|2--2--3-2-0-2--2-2--5-2-0--2--2--3-2-0-2--2-2--222-0-----------------------------|
|2--2--3-2-0-2--2-2--5-2-0--2--2--3-2-0-2--2-2--222-0-----------------------------|
                                                ppp
|---------------------------------------------------------------------------------|
|---------------------------------------------------------------------------------|
|---------------------------------------------------------------------------------|
|---------------------------------------------------------------------------------|
|2--2--3-2-0-2--2-2--5-2-0--2--2--3-2-0-2--2-2-2-2*-------------------------------|
|2--2--3-2-0-2--2-2--5-2-0--2--2--3-2-0-2--2-2-2----------------------------------|
                                             p p
|---------------------------------------------------------------------------------|
|---------------------------------------------------------------------------------|
|---------------------------------------------------------------------------------|
|---------------------------------------------------------------------------------|
|2--2--3-2-0-2--2-2--5-2-0--2--2--3-2-0-2--2-2--0--0--0---------------------------|
|2--2--3-2-0-2--2-2--5-2-0--2--2--3-2-0-2--2-2--0--0--0---------------------------|
                                                p  p  p

|---------------------------------------------------------------------------------|
|---------------------------------------------------------------------------------|
|---------------------------------------------------------------------------------|
|---------------------------------------------------------------------------------|
|2--2--3-2-0-2--2-2--5-2-0--2--2--3-2-0-2--2-2--222-0-----------------------------|
|2--2--3-2-0-2--2-2--5-2-0--2--2--3-2-0-2--2-2--222-0-----------------------------|

Right. Now. We. Stand. As. One. You. F*cking. F*ck!

|---------------------------------------------------------------------------------|
|---------------------------------------------------------------------------------|
|---------------------------------------------------------------------------------|
|2----2----2----2----2----2----2----2----0~---------------------------------------|
|2----2----2----2----2----2----2----2----0~---------------------------------------|
|2----2----2----2----2----2----2----2----0~---------------------------------------|

That's all. I'd like some help with parts I didn't figure out. This is a great 
underrated band and I'd like to view more tabs for their songs.


************************************

| /   slide up
| \   slide down
| ~   let ring
| v   vibrato
| <>  natural harmonic
| *   artificial harmonic
| x   mute note
| p   palm mute

************************************
Добавлено: 30.06.2015
Другие материалы по этой песне:
  • Аккорды и текст

Страница создана 30.06.2015
http://primanota.ru/misc-unsigned-bands/all-faces-down-tribute-chords.htm
Привет, Гость.
Предлагаем пройти революционный курс по гитаре.
Подарок от PrimaNota.Ru, забирай!