PrimaNota.ru - самый крупный в мире бесплатный архив песенных текстов, аккордов, табулатур и нот


Misc Unsigned Bands - Alexa San Roman - Lighthouse Live - таба

Регистрация Запомнить меня
Войти через:  Facebook Google Twitter Vk Yandex Mail.ru

Misc Unsigned Bands - Alexa San Roman - Lighthouse Live - таба

Печатать
Просмотров: 30
Новый альбом группы 'Черный Кузнец' по культовому сериалу 'Сверхъестественное'!
This is the version Alexa has on her channel:
https://www.youtube.com/watch?v=4Uegr91BnTE


[0:00-0:16]

e|--------0---------------------0---------------8-7----------3------------|
B|-1---------1--------1/3-3-------3-------5------------3--------5p0-------|  
G|---2---------2---2----------4-------4-----0------------4----------------| x2
D|-3---3-(3)-----3----3/5---5-------5---------7--------5---5-5--5---------|
A|------------------------------------------------------------------------|
E|------------------------------------------------------------------------|


[0:16-0:19]

e|--------3p0-------------------|
B|-1-----------1----3-----------|
G|---2--------------4--4--------|
D|-3---3-(3)-----3--5-----------|
A|------------------------------|
E|------------------------------|


[0:20-0:36]

e|---------------------------------------------------------------------|
B|-----1--------5b6br----------------------------1--0----------3p0-----|
G|-----------------------------------------------2---------------------| x2
D|---2--------3-------------------------------2-(2)--------------------|
A|-3--------5-------------------------------0---------------3----------|
E|--------------------------------------------------------1------------|


[0:37-0:53]

e|-3---3p0---------------0-----------------------------------------------|
B|---1------1---1---1----- 1---------5----5--3----3--0----0--3----3------|
G|----0-------0-------0------0--0------0-------0-------0-------0---------| x2
D|---------------------2-------2--------0-------0-------0-------0--------|
A|-3---3-3---- (3)--0----0-0---------2-------2-------2-------2-----------|
E|-----------------------------------------------------------------------|


[0:54-1:10]

e|--------0---------------------0---------------8-7----------3------------|
B|-1---------1--------1/3-3-------3-------5------------3--------5p0-------|  
G|---2---------2---2----------4-------4-----0------------4----------------| x2
D|-3---3-(3)-----3----3/5---5-------5---------7--------5---5-5--5---------|
A|------------------------------------------------------------------------|
E|------------------------------------------------------------------------|


[1:10-1:13]

e|--------3p0-------------------|
B|-1-----------1----3-----------|
G|---2--------------4--4--------|
D|-3---3-(3)-----3--5-----------|
A|------------------------------|
E|------------------------------|


[1:14-1:30]

e|---------------------------------------------------------------------|
B|-----1--------5b6br----------------------------1--0----------3p0-----|
G|-----------------------------------------------2---------------------| x2
D|---2--------3-------------------------------2-(2)--------------------|
A|-3--------5-------------------------------0---------------3----------|
E|--------------------------------------------------------1------------|


[1:31-1:47]

e|---------------------------------------------------------------------|
B|-----1----------5b6br--------------------------1--0----------3p0-----|
G|-----------------------------------------------2---------------------| x2
D|---2--------3-------------------------------2-(2)--------------------|
A|-3--------5---5----------------------------0-0--------------3--------|
E|--------------------------------------------------------1------------|



[1:48-1:51]

e|-----0----|
B|----1-----|
G|---0------|
D|--2-------|
A|-3--------|
E|----------|


************************************
| (n) Ghost note
| p   Pull-off
| b   Bend
| br  Bend release
| /   Slide up
| \   Slide down
************************************
Добавлено: 17.03.2018
Другие материалы по этой песне:
  • Аккорды и текст

Страница создана 17.03.2018
http://primanota.ru/misc-unsigned-bands/alexa-san-roman-lighthouse-live-chords.htm
Привет, Гость.
Предлагаем пройти революционный курс по гитаре.
Подарок от PrimaNota.Ru, забирай!