PrimaNota.ru - самый крупный в мире бесплатный архив песенных текстов, аккордов, табулатур и нот


Misc Unsigned Bands - Alex Kankeko - For Sleepless Minds - таба

Регистрация Запомнить меня
Войти через:  Facebook Google Twitter Vk Yandex Mail.ru

Misc Unsigned Bands - Alex Kankeko - For Sleepless Minds - таба

Печатать
Просмотров: 63
For Sleepless Minds
Alex Kaneko


Very slow, but still amazing.  I apologize for the length, 
but it's kind of necessary becuase he always changes a thing or two every time.
I hope you don't find it confusing in some areas.

Capo 3rd fret
All notes relative to capo
Standard Tuning EBGDAE


Intro
E|---------|-----------|---------|-----------|
B|---------|-----------|---------|-----------|
G|------0--|--0---0----|--0h2----|--2---2----|
D|--0h2----|--2-2---2--|------0--|--2-2---2--|
A|--3------|--2--------|--2------|--0--------|
E|---------|-----------|---------|-----------|

E|---------|-----------|-------|---------|
B|---------|-----------|-------|---------|
G|------0--|--0---0----|--0h2--|----2----|
D|--0h2----|--2-2---2--|--0----|--0---0--|
A|--3------|--2--------|--2----|---------|
E|---------|-----------|-------|---------|

E|-------------------|-------------------|-------------------|-------------------|
B|-------------------|-------------------|-------------------|-------------------|
G|----0---0---0---0--|----0---0---0---0--|----2---2---2---2--|----2---2---2---2--|
D|----2---2---2---2--|----2---2---2---2--|----0---0---0---0--|----2---2---2---2--|
A|--3---3---3---3----|--2---2---2---2----|--2---2---2---2----|--0---0---0---0----|
E|-------------------|-------------------|-------------------|-------------------|


Verse1
          So maybe I was wrong...
E|-------------------|-------------------|-------------------|-------------------|
B|-------------------|-------------------|-------------------|-------------------|
G|----0---0---0---0--|----0---0---0---0--|----2---2---2---2--|----2---2---2---2--|  x2
D|----2---2---2---2--|----2---2---2---2--|----0---0---0---0--|----2---2---2---2--|
A|--3---3---3---3----|--2---2---2---2----|--2---2---2---2----|--0---0---0---0----|
E|-------------------|-------------------|-------------------|-------------------|


Chorus1
    Ask yourself the questions...
E|-------------------|-------------------|-------------------|-------------------|
B|-------------------|-------------------|-------------------|-------------------|
G|----0---0---0---0--|----0---0---0---0--|----2---2---2---2--|----0---0---0---0--|
D|----2---2---2---2--|----2---2---2---2--|----2---2---2---2--|----2---2---2---2--|
A|--3---3---3---3----|--2---2---2---2----|--0---0---0---0----|--3---3---3---3----|
E|-------------------|-------------------|-------------------|-------------------|

E|-------------------|-------------------|-------------------|
B|-------------------|-------------------|-------------------|
G|----0---0---0---0--|----0---0---0---0--|----2---2---2---2--| 
D|----2---2---2---2--|----2---2---2---2--|----2---2---2---2--|
A|--3---3---3---3----|--2---2---2---2----|--0---0---0---0----|
E|-------------------|-------------------|-------------------|


Verse2
                         Try to understand...
E|-------------------|-------------------|-------------------|-------------------|
B|-------------------|-------------------|-------------------|-------------------|
G|----2---2---2---2--|----0---0---0---0--|----0---0---0---0--|----0---0---0---0--|  x2
D|----0---0---0---0--|----0---0---0---0--|----2---2---2---2--|----2---2---2---2--|
A|--0---0------------|-------------------|--2---2---2---2----|--3---3---3---3----|
E|----------0---2----|--3---3---3---3----|-------------------|-------------------|

E|-------------------|
B|-------------------|
G|----2---2---2---2--|
D|----0---0---0---0--|
A|--0---0---0---0----|
E|-------------------|


Chorus2
   So I'll ask myself the questions...
E|-------------------|-------------------|-------------------|-------------------|
B|-------------------|-------------------|-------------------|-------------------|
G|----0---0---0---0--|----0---0---0---0--|----2---2---2---2--|----0---0---0---0--|  x2
D|----2---2---2---2--|----2---2---2---2--|----2---2---2---2--|----2---2---2---2--|
A|--3---3---3---3----|--2---2---2---2----|--0---0---0---0----|--3---3---3---3----|
E|-------------------|-------------------|-------------------|-------------------|

E|-------------------|-------------------|                       -------------------|
B|-------------------|-------------------|                       -------------------| 
G|----2---2---2---2--|----0---0---0---0--|   play this part      ----0---0---0---0--|
D|----0---0---0---0--|----0---0---0---0--|   only on the   --->  ----0---0---0---0--|
A|--0---0---0---0----|-------------------|   first time          -------------------| 
E|-------------------|--3---3---3---3----|   in the chorus2      --3---3---3---3----| 


Verse1

Chorus1

Verse2

Chorus2


Bridgeish thing where he says let go a lot
    let go... let go...
E|-------------------|-------------------|-------------------|
B|-------------------|-------------------|-------------------|
G|----0---0---0---0--|----0---0---0---0--|----2---2---2---2--|
D|----2---2---2---2--|----2---2---2---2--|----0---0---0---0--|
A|--2---2---2---2----|--3---3---3---3----|--0---0---0---0----|
E|-------------------|-------------------|-------------------|

E|-------------------|-------------------|-------------------|-------------------|
B|-------------------|-------------------|-------------------|-------------------|
G|----0---0---0---0--|----0---0---0---0--|----0---0---0---0--|----2---2---2---2--|
D|----0---0---0---0--|----2---2---2---2--|----2---2---2---2--|----0---0---0---0--|
A|-------------------|--2---2---2---2----|--3---3---3---3----|--0---0---0---0----|
E|--3---3---3---3----|-------------------|-------------------|-------------------|


Chorus2

End on
E|--3----3---|
B|--0--------|
G|--0--------|
A|--0--------|
D|--2--------|
E|--3--------|


Lyrics:

So maybe I was wrong
Maybe I can't take the monotone
Maybe I'm not strong
Maybe I deserve to be alone.

Ask yourself the questions
That you know you just can't answer 'till tomorrow
Cause you're scared of your dreams
Try to find the sense in things
You just can't seem to fight away the sorrow
But its not how it seems

Try to understand
I'm still mesmerized and mystified with you
But its no simple plan
Cause I don't even know what to feel or do

So I'll ask myself the questions
That I know I just can't ask myself forever
Cause I'll never know
Bite my lip and close my eyes
Maybe I can ask you why tomorrow
But for now
Let me let go

So maybe she was right
Afterall you knew it all along
And you never got your fight
Maybe you deserve to be alone

Ask yourself the questions
That you know you just can't answer 'till tomorrow
Cause you're scared of your dreams
Try to find the sense in things
You just can't seem to fight away the sorrow
But its not how it seems
No

Try to understand
I'm still mesmerized and mystified with you
But its no simple plan
Cuz I don't even know what to feel or do

So I'll ask myself the questions
That I know I just can't ask myself forever
Cause I'll never know
Bite my lip and close my eyes
Maybe I can ask you why tomorrow
But for now
Let me 
Let go (x4)

I'll ask myself the questions
That I've asked myself a thousand times today
But I'll never know
I'll bite my lip and close my eyes
In my dreams apologize
And say, "Please let me, let go."
Добавлено: 07.11.2013
Другие материалы по этой песне:
  • Аккорды и текст

Страница создана 07.11.2013
http://primanota.ru/misc-unsigned-bands/alex-kankeko-for-sleepless-minds-chords.htm
Привет, Гость.
Предлагаем пройти революционный курс по гитаре.
Подарок от PrimaNota.Ru, забирай!