PrimaNota.ru - самый крупный в мире бесплатный архив песенных текстов, аккордов, табулатур и нот


Misc Unsigned Bands - Alanna - The Male Abortion - таба

Регистрация Запомнить меня
Войти через:  Facebook Google Twitter Vk Yandex Mail.ru

Misc Unsigned Bands - Alanna - The Male Abortion - таба

Печатать
Просмотров: 115
Уроки эстрадного вокала в Санкт-Петербурге
Intro and Verse:

E|--------------------------------------------------|
B|--------1-----------0-----------0-----------0-----|
G|-----------0-----------0-----------2-----------2--|
D|-----2-----------2-----------2-----------2--------|
A|--3-----------2-----------0-----------0-----------|
E|--------------------------------------------------|

Post Verse:

E|--------------------------------------------------|
B|--------0-----------0-----------0-----------0-----|
G|-----------2-----------2-----------2-----------2--|
D|-----3-----------3-----------2-----------2--------|
A|--3-----------3-----------0-----------0-----------|
E|--------------------------------------------------|

Lyrics:

Blake went to the clinic today
Frightened for his womb
The smell of it was on him
Everyone looked at him funny

I told him I'd like to see a male abortion
And see consequence bite him
It came as such a shock to him
When Sarah upped and left him

He drained himself
And smelled no more
But everyone still looked at him funny
Because they know he's a whore

He got treatment for free
They bathed him in honey
They fed him barbed wire
They clothed and buried him

Now no one wants to stroke dear Blake
They think he's infected
With tar and nicotine in his genitals
No purpose for protection

I admire his reflection
Because that boy has guts
So don't bury him deep
He's just an adolescent flux

Laura's starting to smell the same
And mother seems to know it
But no one will help her now
She's on her own to fend it
Добавлено: 12.10.2015
Другие материалы по этой песне:
  • Аккорды и текст

Страница создана 12.10.2015
http://primanota.ru/misc-unsigned-bands/alanna-male-abortion-chords.htm
Привет, Гость.
Предлагаем пройти революционный курс по гитаре.
Подарок от PrimaNota.Ru, забирай!