PrimaNota.ru - самый крупный в мире бесплатный архив песенных текстов, аккордов, табулатур и нот


Misc Unsigned Bands - Afterbath - Let Me Love You In The Present Tense - бас-таба

Регистрация Запомнить меня
Войти через:  Facebook Google Twitter Vk Yandex Mail.ru

Misc Unsigned Bands - Afterbath - Let Me Love You In The Present Tense - бас-таба

Печатать
Просмотров: 78
Уроки эстрадного вокала в Санкт-Петербурге
-------------------------------------------------------------------------------
                Let Me Love You (In The Present Tense) - Afterbath
-------------------------------------------------------------------------------
Intro
G|--------|
D|--------|
A|--------|
E|-3\12/3-|
B|--------|

Line 1:
G|------------------------------------------------|
D|------------------------------------------------|
A|-0---3-0-0-----3-----0---3-0-0-----0-5-3-0-3-5--|
E|---3-------3-0---3-3---3-------0-3--------------|
B|------------------------------------------------|

Line 2:
G|-------------------------------------------------------------------|
D|-------------------------------------------------------------------|
A|---------------------------3-0-------------3----------0-3-0h3---0--|
E|--------8--8-3-3--5--5-5-0-----3--5-5--0-0---5-0--0-0---------0----|
B|-3--3-3\-----------------------------------------------------------|

Song order:
Intro x1
Line 1 x2
Line 2 x2
Line 1 x2
Line 2 x1
Line 1 x7
Line 2 x2

===============================================================================
Добавлено: 08.02.2016
Другие материалы по этой песне:
  • Аккорды и текст

Страница создана 07.02.2016
http://primanota.ru/misc-unsigned-bands/afterbath-let-me-love-you-in-present-tense-chords.htm
Привет, Гость.
Предлагаем пройти революционный курс по гитаре.
Подарок от PrimaNota.Ru, забирай!