PrimaNota.ru - самый крупный в мире бесплатный архив песенных текстов, аккордов, табулатур и нот


Misc Unsigned Bands - Adora - Save Yourself - таба

Регистрация Запомнить меня
Войти через:  Facebook Google Twitter Vk Yandex Mail.ru

Misc Unsigned Bands - Adora - Save Yourself - таба

Печатать
Просмотров: 70
INTRO

Electric 1
(listen to song for strum pattern)
E|-------|
B|-------|
G|-5-4-5-|
D|-x-x-x-|
A|-3-2-3-|
D|-------|

Electric 2

E|---------------------|
B|---------------------|
G|---------------------|
D|-10----10-6-8-10-6-8-|
A|-10----10-6-8-10-6-8-|
D|-10----10-6-8-10-6-8-|

VERSE (part 1)

Electric 1

E|------------------------|
B|------------------------|
G|-12-10------------------|
D|-------13-12/13---------|
A|------------------------|
D|----------------13\\\\\-|

VERSE (part 20

Electric 1

E|-------------------------------|
B|-------------------------------|
G|-------------------------------|
D|-10-------13----10-------13----|
A|----11-x2----11----11-x3----11-|
D|-------------------------------|

PRE-CHORUS

Electric 1+2
(hold)
E|----|
B|----|
G|----|
D|-10-|
A|-10-|
D|-10-|

CHORUS (part 1)

Electric 1

E|----------|
B|----------|
G|-5-10-8-7-|
D|-x-x--x-x-|
A|-3-8--6-5-|
D|----------|

Electric 2

E|----------|
B|----------|
G|----------|
D|-10-6-7-1-|
A|-10-6-7-1-|
D|-10-6-7-1-|

CHORUS (part 2)

Electric 1

E|-------------|
B|-------------|
G|-13-12-10-12-|
D|-x--x--x--x--|
A|-11-10-8--10-|
D|-------------|

Electric 2

E|------|
B|------|
G|------|
D|-10-8-|
A|-10-8-|
D|-10-8-|

INTRO

VERSE (part 1)
No Playing

VERSE (part 2)
Same as first time

PRE-CHORUS

Electric 1

E|--------------------------------------------------|
B|-8-------------8-----------6h8----------8-6-------|
G|---10-8-7-8-10---10-8-7-5------8h10-7h8-----8-7-5-|
D|--------------------------------------------------|
A|--------------------------------------------------|
D|--------------------------------------------------|

Electric 2

E|----|
B|----|
G|----|
D|-10-|
A|-10-|
D|-10-|

CHORUS

BRIDGE

Electric 1

E|-16-10-15-13-11-16-10-15-16-16-10-8-16-10-11-|
B|---------------------------------------------|
G|---------------------------------------------|
D|---------------------------------------------|
A|---------------------------------------------|
D|---------------------------------------------|

Electric 2

E|-----------|
B|-----------|
G|-14-12-7-8-|
D|-x--x--x-x-|
A|-12-10-5-6-|
D|-----------|

CHORUS

With E1 from Intro
Добавлено: 13.09.2013
Другие материалы по этой песне:
  • Аккорды и текст

Страница создана 13.09.2013
http://primanota.ru/misc-unsigned-bands/adora-save-yourself-chords.htm
Привет, Гость.
Предлагаем пройти революционный курс по гитаре.
Подарок от PrimaNota.Ru, забирай!