PrimaNota.ru - самый крупный в мире бесплатный архив песенных текстов, аккордов, табулатур и нот


Misc Unsigned Bands - Adam Musciano - Luna - таба

Регистрация Запомнить меня
Войти через:  Facebook Google Twitter Vk Yandex Mail.ru

Misc Unsigned Bands - Adam Musciano - Luna - таба

Печатать
Просмотров: 61
Уроки эстрадного вокала в Санкт-Петербурге
-------------------------------------------------------------------------------
                             Luna - Adam Musciano
-------------------------------------------------------------------------------
Tabbed by:Adam Musciano
E-mail:

Tuning:Standard

Intro
e|---------------------------------------------------------------------------|
B|---------------------------------------------------------------------------|
G|---------------------------------------------------------------------------|
D|---------------------------------------------------------------------------|
A|----11---11---11---11---9---9---9---9---7---7---7---7---7---7---7---7------|
E|--9----9----9----9----7---7---7---7---5---5---5---5---5---5---5---5--------|


Verses: (Walked into the apartment...)/( I want you to know...)
e|---------------------------------------------------------------------------|
B|---------------------------------------------------------------------------|
G|---------------------------------------------------------------------------|
D|---------------------------------------------------------------------------|X4
A|----11---11---11---11---9---9---9---9---7---7---7---7---7---7---7---7------|
E|--9----9----9----9----7---7---7---7---5---5---5---5---5---5---5---5--------|

   (Hey if you like woodstock...)/(So don't be scared...)
e|---------------------------------------------------------------------------|
B|---------------------------------------------------------------------------|
G|---------------------------------------------------------------------------|
D|---------------------------------------------------------------------------|
A|---7--7---7---7---7---7---7---7---7---7---7---7----7---7---7---7---7---7---|
E|-4--4---4---4---4---4---4---4---4---4---4---4----5---5---5---5---5---5-----|

Chorus: (Call me Luna)
e|---------------------------------------------------------------------------|
B|---------------------------------------------------------------------------|
G|---------------------------------------------------------------------------|
D|---------------------------------------------------------------------------|X3
A|----11---11---11---11---9---9---9---9---7---7---7---7---7---7---7---7------|
E|--9----9----9----9----7---7---7---7---5---5---5---5---5---5---5---5--------|

(Are you a broken one...)
e|---------------------------------------------------------------------------|
B|---------------------------------------------------------------------------|
G|---------------------------------------------------------------------------|
D|---------------------------------------------------------------------------|
A|---7--7---7---7---7---7---7---7---7---7---7---7----7---7---7---7---7---7---|
E|-4--4---4---4---4---4---4---4---4---4---4---4----5---5---5---5---5---5-----|

(Oh Luna...)
e|---------------------------------------------------------------------------|
B|---------------------------------------------------------------------------|
G|---------------------------------------------------------------------------|
D|---------------------------------------------------------------------------|
A|----11---11---11---11---9---9---9---9---7---7---7---7---7---7---7---7------|
E|--9----9----9----9----7---7---7---7---5---5---5---5---5---5---5---5--------|

Outro: *Short, sharp notes*
e|---------------------------------------------------------------------------|
B|---------------------------------------------------------------------------|
G|---------------------------------------------------------------------------|
D|---------------------------------------------------------------------------|
A|------11---11-------9---9-------7----7-----7----7~-------------------------|
E|--9------9-------7-----7-----5-----5----5-------5~-------------------------|

*On Second Chorus, strum instead of pick*

Lyrics:

Walked into the apartment the other day.
The lights are dimmed, the music's loud, I must be late.
There's this girl beside me asking me my name.
She says, it's crazy how you can be anyone
And it will all stay the same.
Hey, if you like wood stock, 
Who am I to blame?

Call me Luna
And when I call you, don't be late.
Yeah this isn't love, it's just a game.
Are you a broken one?
Because I'm finally seeing straight
Oh Luna

I want you to know that it's not too late
To be the one who can control your fate
It's the emptiness that haunts you,
But that's what it will take
So don't be scared
This cold isn't hard to shake

Call me Luna
And when I call you, don't be late.
Yeah this isn't love, it's just a game.
Are you a broken one?
Because I'm finally seeing straight
Oh Luna



************************************

| /   slide up
| \   slide down
| h   hammer-on
| p   pull-off
| ~   vibrato
| +   harmonic
| x   Mute note
| b   Bend
| pb  Pre-bend
| br  Bend release
| pbr Pre-bend release
| brb Bend release bend

************************************
Добавлено: 18.04.2016
Другие материалы по этой песне:
  • Аккорды и текст

Страница создана 18.04.2016
http://primanota.ru/misc-unsigned-bands/adam-musciano-luna-chords.htm
Привет, Гость.
Предлагаем пройти революционный курс по гитаре.
Подарок от PrimaNota.Ru, забирай!