PrimaNota.ru - самый крупный в мире бесплатный архив песенных текстов, аккордов, табулатур и нот


Misc Unsigned Bands - Acid Ghost - All Alone - таба, видео

Регистрация Запомнить меня
Войти через:  Facebook Google Twitter Vk Yandex Mail.ru

Misc Unsigned Bands - Acid Ghost - All Alone - таба, видео

Печатать
Просмотров: 62
-------------------------------------------------------------------------------
                             All Alone - Acid Ghost
-------------------------------------------------------------------------------
Tabbed by: Zero
E-mail: gandhilegion@gmail.com
[This is my first submitted tab, please be gentle with me.]

Tuning: Standard E
____________________________________________________________________________________________________________


e|---------------------------------------------------------------------------|
B|---------------------------------------------------------------------------|
G|----9----9------10---10-----12---12----12----12--14-12---------------------|
D|--10---10-10--12---12--12-14---14--1414--1414------------------------------|
A|---------------------------------------------------------------------------|
E|---------------------------------------------------------------------------|

e|---------------------------------------------------------------------------|
B|---------------------------------------------------------------------------|
G|----9----9------10---10-----12---12--1212\---xXxXxXx-----------------------|
D|--10---10-10--12---12--12-14---14--14--14\---xXxXxXx-----------------------|
A|---------------------------------------------xXxXxXx-----------------------|
E|---------------------------------------------xXxXxXx-----------------------|

[Couldnt figure out how to reproduce the strum pattern, but if you listen to the song you get it]
e|---------------------------------------------------------------------------|
B|------5--------------------------------------------------------------------|
G|-5-5-5x5------5------------------------------------------------------------|
D|-5-5-555--5-5-5x5--3-3-3232------------------------------------------------|
A|-3-3-333--5-5-555--3-3-3333------------------------------------------------|
E|----------3-3-333--1-1-1111------------------------------------------------|


[solo guitar when he sings 'Im all alooone']
e|--------------------------|-------------------------------------------------|
B|--13-10-8-10--13-10-88-10-|-------------------------------------------------|
G|--------------------------|-------------------------------------------------|
D|--------------------------|-------------------------------------------------|
A|--------------------------|--7--7-5---7-5-3----0-3-0---7---7-5---7-5-3---0-3|
E|--------------------------|-------------------------------------------------|

Lyrics:  vvv    ---> [all power chords: C5, G5, F5]<---

C                  G
We got lost in the summer heat
        F
Used to drink cold beer and smoke good weed
       C              G          F
Let's stargaze in the backseat tonight
  C                          G
You're gunna leave me in the morning time
         F
But I'll act as (if) I'm completely fine
         C           G        F
And I'll be alone by myself tonight

X  x X x X x C      G   
And I'm all alone
           F 
I'm all alone
            C  G     F
I'm all alo-o--o---one

C...  G..  F. X x X x X x

C                    G
We used to spend our days in the sand
      F
Not a care in the world we didn't have plans
       C               G            F 
(but)Now you and I are hard to understand
C                      G           
I used to think you're all I need
        F
We made out in the pier stayed out til 3
    C                G           F 
Now I'm just lookin' at an empty sea

X  x X x X x C      G   
And I'm all alone
G          F 
I'm all alone
            C  G     F
I'm all alo-o--o----one

************************************

| /   slide up
| \   slide down
| h   hammer-on
| p   pull-off
| X   Mute down strum
| x   mute up strum

************************************

Correct things if you can please though most of this is already, 
I just tried to do this real quick and get up the most obvious stuff.
A huge thanks is due to ACID GHOST who releases his EP November 26th! 
Great music, keep it comin' if you can <3
Добавлено: 18.04.2016
Другие материалы по этой песне:
  • Аккорды и текст

Страница создана 18.04.2016
http://primanota.ru/misc-unsigned-bands/acid-ghost-all-alone-chords.htm
Привет, Гость.
Предлагаем пройти революционный курс по гитаре.
Подарок от PrimaNota.Ru, забирай!