PrimaNota.ru - самый крупный в мире бесплатный архив песенных текстов, аккордов, табулатур и нот


Misc Unsigned Bands - Absofacto - On A Ladder Leading Nowhere - бас-таба

Регистрация Запомнить меня
Войти через:  Facebook Google Twitter Vk Yandex Mail.ru

Misc Unsigned Bands - Absofacto - On A Ladder Leading Nowhere - бас-таба

Печатать
Просмотров: 392
Уроки эстрадного вокала в Санкт-Петербурге
ABSOFACTO - ON A LADDER LEADING NOWHERE
Tabbed by kaleidochord

Intro

G|-----|--------------5---------------------------5------------------------|
D|-----|----------------2-4-4-4-4-4-------5-5-5-5---5-5-5-0-0---0----------|
A|--9\-|-2-2-2-2-2-/5---------------2-4-5---------------------2---4-4-1-4--|
E|-----|-------------------------------------------------------------------|

G|--------------5---------------------------5------------------------|
D|----------------2-4-4-4-4-4-------5-5-5-5---5-5-5-0-0---0----------|
A|-2-2-2-2-2-/5---------------2-4-5---------------------2---4-4-1-4--|
E|-------------------------------------------------------------------|

Verse

G|--------------5---------------------------5------------------------|
D|----------------2-4-4-4-4-4-------5-5-5-5---5-5-5-0-0---0----------|
A|-2-2-2-2-2-/5---------------2-4-5---------------------2---4-4-1-4--|
E|-------------------------------------------------------------------|   x2

G|--------------------------------------------|--------------------------------------------|
D|--------------------------------------------|--------------------------------------------|
A|-2--2-2-------------------5-5-5-5\0-4-4-4-4-|-0--2-2-------------------5-5-5-5\0-4-4-4-4-|
E|--------0-2-2-2-2-3-3-3-3-------------------|--------0-2-2-2-2-3-3-3-3-------------------|

G|--------------------------------------------|
D|--------------------------------------------|
A|-0--2-2-------------------------------------|
E|--------0-2-2-2-2-3-3-3-3-3-3-3-3-3-3-3-3\--|

Chorus

Verse

G|--------------5-----------3-----3-----------5----------------------|
D|----------------2-4-4-4-2---4-2---5-5-5-5-5---5-5-0-0---0----------|
A|-2-2-2-2-2-/5-----------------------------------------2---4-4-1-4--|
E|-------------------------------------------------------------------|   

G|--------------5-----------------3-----------5----------------------|
D|----------------2-4-4-4-4---024---5-5-5-5-5---5-5-0-0---0----------|
A|-2-2-2-2-2-/5-----------------------------------------2---4-4-1-4--|
E|-------------------------------------------------------------------|   

G|--------------5----------------------------------------------------|
D|----------------2-4-4-4-4-4---------------------4-0-0---0----------|
A|-2-2-2-2-2-/5---------------2-4-5-5-5-5-5-5-5-5-------2---4-4-1-4--|
E|-------------------------------------------------------------------|   x2

G|--------------------------------------------|--------------------------------------------|
D|--------------------------------------------|--------------------------------------------|
A|-2--2-2-------------------5-5-5-5\0-4-4-4-4-|-0--2-2-------------------5-5-5-5\0-4-4-4-4-|
E|--------0-2-2-2-2-3-3-3-3-------------------|--------0-2-2-2-2-3-3-3-3-------------------|

G|--------------------------------------------|
D|--------------------------------------------|
A|-0--2-2-------------------------------------|
E|--------0-2-2-2-2-3-3-3-3-3-3-3-3-3-3-3-3\--|

Chorus

G|---------------------------------|
D|-----------------5-5-5-5-5-5-5-5-|
A|-5-5-5-5-5-5-5-5-----------------|
E|---------------------------------|   x4

G|----------------------------------|
D|----------------------------------|
A|-5-5-5----------------------------|
E|-------3-3-3-3-3---3-3-3-3-3-3-3--|   x3

G|----------------------------------|
D|----------------------------------|
A|-5-5-5----------------------------|
E|-------3-3-3-3-3-2-2-2-2-0-0-0-0--|  

Outro 

G|----------------------------------|
D|----------------------------------|
A|-5-0-2----------------------------|
E|-------3-3-3-3-3---3-3-3-3-3-3-3--|   x3

G|----------------------------------|
D|----------------------------------|
A|-5-5-5----------------------------|
E|-------3-3-3-3-3-2-2-2-2-0-0-0-0--|  

G|----------------------------------|
D|----------------------------------|
A|-5-5-5----------------------------|
E|-------3-3-3-3-3---3-3-3-3-3-3-3--|   x4
Добавлено: 09.12.2013
Другие материалы по этой песне:
  • Аккорды и текст

Страница создана 09.12.2013
http://primanota.ru/misc-unsigned-bands/absofacto-on-a-ladder-leading-nowhere-chords.htm
Привет, Гость.
Предлагаем пройти революционный курс по гитаре.
Подарок от PrimaNota.Ru, забирай!