PrimaNota.ru - самый крупный в мире бесплатный архив песенных текстов, аккордов, табулатур и нот


Misc Unsigned Bands - Abigail Miranda - Torijelly Twitter - таба

Регистрация Запомнить меня
Войти через:  Facebook Google Twitter Vk Yandex Mail.ru

Misc Unsigned Bands - Abigail Miranda - Torijelly Twitter - таба

Печатать
Просмотров: 26
-------------------------------------------------------------------------------
                             idk - me lmao
-------------------------------------------------------------------------------
Tabbed by: Abigail Miranda

Tuning: Standard (Capo 2)

e|---------------------------------------------------------------------------------|
B|---------------------------------------------------------------------------------|
G|-------------------------------------------0-0h2/-4\-2p0------0-0h2/-4\-2p0------|
D|---0-2/-4\-2p0------0-2/-4\-2p0---2p0---------------------2-----------------0-0h2|
A|-2--------------2-2-----------2------0h2-----------------------------------------|
E|-----0------------0-2-3/-5\-3-------------3-----------------5--------------------|



************************************

| /   slide up
| \   slide down
| h   hammer-on
| p   pull-off
| ~   vibrato
| +   harmonic
| x   Mute note
| b   Bend
| pb  Pre-bend
| br  Bend release
| pbr Pre-bend release
| brb Bend release bend

************************************
Добавлено: 18.04.2016
Другие материалы по этой песне:
  • Аккорды и текст

Страница создана 18.04.2016
http://primanota.ru/misc-unsigned-bands/abigail-miranda-torijelly-twitter-chords.htm
Привет, Гость.
Предлагаем пройти революционный курс по гитаре.
Подарок от PrimaNota.Ru, забирай!