PrimaNota.ru - самый крупный в мире бесплатный архив песенных текстов, аккордов, табулатур и нот


Misc Unsigned Bands - A Heros Demise - Too Late - таба, видео

Регистрация Запомнить меня
Войти через:  Facebook Google Twitter Vk Yandex Mail.ru

Misc Unsigned Bands - A Heros Demise - Too Late - таба, видео

Печатать
Просмотров: 79
-------------------------------------------------------------------------------
                             Too Late - A Hero's Demise
-------------------------------------------------------------------------------
Tabbed by: Kevin Rogers


Tuning: Drop C#


        Verse:

D#|---------------------------------------------------------------------------|
A#|---------------------------------------------------------------------------|
F#|---------------------------------------------------------------------------|
C#|------10-------10-------10-------10-------10-------10-------10-------10----|
G#|----8----8---8----8---8----8---8----8---8----8---8----8---8----8---8----8--|
C#|--0--------0--------0--------0--------8--------8--------8--------8---------|

D#|---------------------------------------------------------------------------|
A#|---------------------------------------------------------------------------|
F#|---------------------------------------------------------------------------|
C#|------10-------10-------10-------10-------10-------10-------10-------10----|
G#|----8----8---8----8---8----8---8----8---8----8---8----8---8----8---8----8--|
C#|--7--------7--------7--------7--------8--------8--------8--------8---------|


        Pre chorus:

D#|---------------------------------------------------------------------------|
A#|---------------------------------------------------------------------------|
F#|---------------------------------------------------------------------------|
C#|----------8-------8-------8-------8-------8-------8-------8-------8--------|
G#|--------6---6---6---6---6---6---6---6---6---6---6---6---6---6---6---6------|
C#|------6-------6-------6-------6-------5-------5-------5-------5------------|

D#|---------------------------------------------------------------------------|
A#|---------------------------------------------------------------------------|
F#|---------------------------------------------------------------------------|
C#|------10-------10-------10-------10-------10-------10-------10-------10----|
G#|----8----8---8----8---8----8---8----8---8----8---8----8---8----8---8----8--|
C#|--7--------7--------7--------7--------8--------8--------8--------8---------|


        Chorus lead in:

D#|----------------------------------------------------------------------|
A#|----------------------------------------------------------------------|
F#|----------------------------------------------------------------------|
C#|----------------------------------------------------------------------|
G#|--------------------------------------8-8-8-8-8-8-8-8-8-8-8-8-8-8-8-8-|
C#|--------------------------------------8-8-8-8-8-8-8-8-8-8-8-8-8-8-8-8-|


        Chorus (rhythm):

D#|-------------------------------------------------------------------------------------------|
A#|-------------------------------------------------------------------------------------------|
F#|-------------------------------------------------------------------------------------------|
C#|-10-10-10-10-10-10-10-10-10-10-10-10-10-10-10-10-10-10-10-10-10-10-10-10-10-10-10-10-10-10-|
G#|-8--8--8--8--8--8--8--8--8--8--8--8--8--8--8--7--7--7--7--7--7--7--7--7--7--7--7--7--7--7--|
C#|-------------------------------------------------------------------------------------------|

D#|-----------------------------------------------------------------|
A#|-----------------------------------------------------------------|
F#|-----------------------------------------------------------------|
C#|-7-7-7-7-7-7-7-7-7-7-7-7-7-7-7-7---------------------------------|
G#|-5-5-5-5-5-5-5-5-5-5-5-5-5-5-5-5-8-8-8-8-8-8-8-8-8-8-8-8-8-8-8-8-|
C#|---------------------------------8-8-8-8-8-8-8-8-8-8-8-8-8-8-8-8-|


        Chorus (lead):

D#|---------------------------------------------------------------------------|
A#|---------------------------------------------------------------------------|
F#|---------------------------------------------------------------------------|
C#|--------8---10~--------8---10~------------10~------------10~---------------|
G#|------8---8----------8---8----------7-8-7----------7-8-7-------------------|
C#|---------------------------------------------------------------------------|

D#|---------------------------------------------------------------------------|
A#|---------------------------------------------------------------------------|
F#|---------------------------------------------------------------------------|
C#|--------5---7~---------5---7~-------------8~-------------8~----------------|
G#|------5---5----------5---5------------8--------------8---------------------|
C#|------------------------------------8---8----------8---8-------------------|


        Verse:

D#|---------------------------------------------------------------------------|
A#|---------------------------------------------------------------------------|
F#|---------------------------------------------------------------------------|
C#|------10-------10-------10-------10-------10-------10-------10-------10----|
G#|----8----8---8----8---8----8---8----8---8----8---8----8---8----8---8----8--|
C#|--0--------0--------0--------0--------8--------8--------8--------8---------|

D#|---------------------------------------------------------------------------|
A#|---------------------------------------------------------------------------|
F#|---------------------------------------------------------------------------|
C#|------10-------10-------10-------10-------10-------10-------10-------10----|
G#|----8----8---8----8---8----8---8----8---8----8---8----8---8----8---8----8--|
C#|--7--------7--------7--------7--------8--------8--------8--------8---------|


        Verse (Part 2):

D#|-------------------------------------------------------------------------------|
A#|-------------------------------------------------------------------------------|
F#|-------------------------------------------------------------------------------|
C#|-----10-----10-----10-10-10-----10---10-----10-----10-----10-10-10-----10---10-|
G#|-----8------8------8--8--8------8----8------8------8------8--8--8------8----8--|
C#|-0-0-0--0-0-0--0-0-0--0--0--0-0-0--0-0--8-8-8--8-8-8--8-8-8--8--8--8-8-8--8-8--|

D#|-------------------------------------------------------------------------------|
A#|-------------------------------------------------------------------------------|
F#|-------------------------------------------------------------------------------|
C#|-----10-----10-----10-10-10-----10---10-----10-----10-----10-10-10-----10---10-|
G#|-----8------8------8--8--8------8----8------8------8------8--8--8------8----8--|
C#|-7-7-7--7-7-7--7-7-7--7--7--7-7-7--7-7--8-8-8--8-8-8--8-8-8--8--8--8-8-8--8-8--|


        Pre chorus:

D#|---------------------------------------------------------------------------|
A#|---------------------------------------------------------------------------|
F#|---------------------------------------------------------------------------|
C#|----------8-------8-------8-------8-------8-------8-------8-------8--------|
G#|--------6---6---6---6---6---6---6---6---6---6---6---6---6---6---6---6------|
C#|------6-------6-------6-------6-------5-------5-------5-------5------------|

D#|---------------------------------------------------------------------------|
A#|---------------------------------------------------------------------------|
F#|---------------------------------------------------------------------------|
C#|------10-------10-------10-------10-------10-------10-------10-------10----|
G#|----8----8---8----8---8----8---8----8---8----8---8----8---8----8---8----8--|
C#|--7--------7--------7--------7--------8--------8--------8--------8---------|


        Chorus lead in:

D#|----------------------------------------------------------------------|
A#|----------------------------------------------------------------------|
F#|----------------------------------------------------------------------|
C#|----------------------------------------------------------------------|
G#|--------------------------------------8-8-8-8-8-8-8-8-8-8-8-8-8-8-8-8-|
C#|--------------------------------------8-8-8-8-8-8-8-8-8-8-8-8-8-8-8-8-|


        Chorus (rhythm):

D#|-------------------------------------------------------------------------------------------|
A#|-------------------------------------------------------------------------------------------|
F#|-------------------------------------------------------------------------------------------|
C#|-10-10-10-10-10-10-10-10-10-10-10-10-10-10-10-10-10-10-10-10-10-10-10-10-10-10-10-10-10-10-|
G#|-8--8--8--8--8--8--8--8--8--8--8--8--8--8--8--7--7--7--7--7--7--7--7--7--7--7--7--7--7--7--|
C#|-------------------------------------------------------------------------------------------|

D#|-----------------------------------------------------------------|
A#|-----------------------------------------------------------------|
F#|-----------------------------------------------------------------|
C#|-7-7-7-7-7-7-7-7-7-7-7-7-7-7-7-7---------------------------------|
G#|-5-5-5-5-5-5-5-5-5-5-5-5-5-5-5-5-8-8-8-8-8-8-8-8-8-8-8-8-8-8-8-8-|
C#|---------------------------------8-8-8-8-8-8-8-8-8-8-8-8-8-8-8-8-|


        Chorus (lead):

D#|---------------------------------------------------------------------------|
A#|---------------------------------------------------------------------------|
F#|---------------------------------------------------------------------------|
C#|--------8---10~--------8---10~------------10~------------10~---------------|
G#|------8---8----------8---8----------7-8-7----------7-8-7-------------------|
C#|---------------------------------------------------------------------------|

D#|---------------------------------------------------------------------------|
A#|---------------------------------------------------------------------------|
F#|---------------------------------------------------------------------------|
C#|--------5---7~---------5---7~-------------8~-------------8~----------------|
G#|------5---5----------5---5------------8--------------8---------------------|
C#|------------------------------------8---8----------8---8-------------------|


        Bridge (rhythm):

D#|---------------------------------------------------------------------------|
A#|---------------------------------------------------------------------------|
F#|---------------------------------------------------------------------------|
C#|------10----10-------10----10-------10----10-------10----10----------------|
G#|------8-----8--------8-----8--------7-----7--------7-----7-----------------|
C#|---------------------------------------------------------------------------|

D#|---------------------------------------------------------------------------|
A#|---------------------------------------------------------------------------|
F#|---------------------------------------------------------------------------|
C#|------7-----7--------7-----7--------8-----8--------8-----8-----------------|
G#|------5-----5--------5-----5--------8-----8--------8-----8-----------------|
C#|------------------------------------8-----8--------8-----8-----------------|


        Bridge (lead):

D#|---------------------------------------------------------------------------|
A#|---------------------------------------------------------------------------|
F#|---------------------------------------------------------------------------|
C#|--------8---10~--------8---10~------------10~------------10~---------------|
G#|------8---8----------8---8----------7-8-7----------7-8-7-------------------|
C#|---------------------------------------------------------------------------|

D#|---------------------------------------------------------------------------|
A#|---------------------------------------------------------------------------|
F#|---------------------------------------------------------------------------|
C#|--------5---7~---------5---7~-------------8~-------------8~----------------|
G#|------5---5----------5---5------------8--------------8---------------------|
C#|------------------------------------8---8----------8---8-------------------|


        Chorus (rhythm):

D#|-------------------------------------------------------------------------------------------|
A#|-------------------------------------------------------------------------------------------|
F#|-------------------------------------------------------------------------------------------|
C#|-10-10-10-10-10-10-10-10-10-10-10-10-10-10-10-10-10-10-10-10-10-10-10-10-10-10-10-10-10-10-|
G#|-8--8--8--8--8--8--8--8--8--8--8--8--8--8--8--7--7--7--7--7--7--7--7--7--7--7--7--7--7--7--|
C#|-------------------------------------------------------------------------------------------|

D#|-----------------------------------------------------------------|
A#|-----------------------------------------------------------------|
F#|-----------------------------------------------------------------|
C#|-7-7-7-7-7-7-7-7-7-7-7-7-7-7-7-7---------------------------------|
G#|-5-5-5-5-5-5-5-5-5-5-5-5-5-5-5-5-8-8-8-8-8-8-8-8-8-8-8-8-8-8-8-8-|
C#|---------------------------------8-8-8-8-8-8-8-8-8-8-8-8-8-8-8-8-|


        Chorus (lead):

D#|---------------------------------------------------------------------------|
A#|---------------------------------------------------------------------------|
F#|---------------------------------------------------------------------------|
C#|--------8---10~--------8---10~------------10~------------10~---------------|
G#|------8---8----------8---8----------7-8-7----------7-8-7-------------------|
C#|---------------------------------------------------------------------------|

D#|---------------------------------------------------------------------------|
A#|---------------------------------------------------------------------------|
F#|---------------------------------------------------------------------------|
C#|--------5---7~---------5---7~-------------8~-------------8~----------------|
G#|------5---5----------5---5------------8--------------8---------------------|
C#|------------------------------------8---8----------8---8-------------------|


        Ends on:

D#|---------------------------------------------------------------------------|
A#|---------------------------------------------------------------------------|
F#|---------------------------------------------------------------------------|
C#|------10-------------------------------------------------------------------|
G#|------8--------------------------------------------------------------------|
C#|------0--------------------------------------------------------------------|



Order:

Verse
Pre chorus
Chorus
Verse 
Pre chorus
Chorus
Bridge
Chorus
End


************************************

| /   slide up
| \   slide down
| h   hammer-on
| p   pull-off
| ~   vibrato
| +   harmonic
| x   Mute note
| b   Bend
| pb  Pre-bend
| br  Bend release
| pbr Pre-bend release
| brb Bend release bend

************************************
Добавлено: 16.10.2013
Другие материалы по этой песне:
  • Аккорды и текст

Страница создана 16.10.2013
http://primanota.ru/misc-unsigned-bands/a-heros-demise-too-late-chords.htm
Привет, Гость.
Предлагаем пройти революционный курс по гитаре.
Подарок от PrimaNota.Ru, забирай!