PrimaNota.ru - самый крупный в мире бесплатный архив песенных текстов, аккордов, табулатур и нот


Misc Unsigned Bands - A Heros Demise - I Am Broken - таба, видео

Регистрация Запомнить меня
Войти через:  Facebook Google Twitter Vk Yandex Mail.ru

Misc Unsigned Bands - A Heros Demise - I Am Broken - таба, видео

Печатать
Просмотров: 90
-------------------------------------------------------------------------------
                        I Am Broken - A Hero's Demise
-------------------------------------------------------------------------------
Tabbed by: Kevin Rogers


Tuning: Drop C#



        Intro:

        Guitar 1 [Distorted]
D#|----------------------------------------(x3)-|---------------------------------------------|
A#|---------------------------------------------|---------------------------------------------|
F#|---------------------------------------------|---------------------------------------------|
C#|-2~------------------2/5~--------7~----------|-5~------------------5/7~--------7~----------|
G#|-2~------------------2/5~--------5~----------|-3~------------------3/5~--------5~----------|
C#|-2~------------------2/5~--------------------|---------------------------------------------|
  |                                                                                      
     |
  |     Guitar 2 [Distorted]                                                             
         |
D#|----------------------------------------(x3)-|---------------------------------------------|
A#|---------------------------------------------|---------------------------------------------|
F#|---------------------------------------------|---------------------------------------------|
C#|-2-2-2-2-x-2-2-2-2-2-2/5-5-5-5-x-7-7-7-7-7-7-|-5-5-5-5-x-5-5-5-5-5-5/7-7-7-7-x-7-7-7-7-7-7-|
G#|-2-2-2-2-x-2-2-2-2-2-2/5-5-5-5-x-5-5-5-5-5-5-|-3-3-3-3-x-3-3-3-3-3-3/5-5-5-5-x-5-5-5-5-5-5-|
C#|-2-2-2-2-x-2-2-2-2-2-2/5-5-5-5-x-------------|---------------------------------------------|
  |                                                                                      
     |
  |     Guitar 3 [Distorted]                                                             
         |
D#|----------------------------------------(x3)-|---------------------------------------------|
A#|-5-5-5-5-x-5-5-5-5-5-5/8-8-8-8-x-------------|---------------------------------------------|
F#|-4-4-4-4-x-4-4-4-4-4-4/7-7-7-7-x-7-7-7-7-7-7-|-5-5-5-5-x-5-5-5-5-5-5/7-7-7-7---7-7-7-7-7-7-|
C#|-2-2-2-2-x-2-2-2-2-2-2/5-5-5-5-x-7-7-7-7-7-7-|-5-5-5-5-x-5-5-5-5-5-5/7-7-7-7-x-7-7-7-7-7-7-|
G#|---------x---------------------x-5-5-5-5-5-5-|-3-3-3-3-x-3-3-3-3-3-3/5-5-5-5-x-5-5-5-5-5-5-|
C#|---------------------------------------------|---------------------------------------------|


        Verse (x2):

        Guitar 1 [Distorted]
D#|----------------------------------------(x3)-|---------------------------------------------|
A#|---------------------------------------------|---------------------------------------------|
F#|---------------------------------------------|---------------------------------------------|
C#|-2~------------------2/5~--------7~----------|-5~------------------5/7~--------7~----------|
G#|-2~------------------2/5~--------5~----------|-3~------------------3/5~--------5~----------|
C#|-2~------------------2/5~--------------------|---------------------------------------------|
  |                                                                                      
     |
  |     Guitar 2 [clean]                                                                 
         |
D#|----------------------------------------(x3)-|---------------------------------------------|
A#|-5-5-5-5-x-5-5-5-5-5-5/8-8-8-8-x-------------|---------------------------------------------|
F#|-4-4-4-4-x-4-4-4-4-4-4/7-7-7-7-x-7-7-7-7-7-7-|-5-5-5-5-x-5-5-5-5-5-5/7-7-7-7---7-7-7-7-7-7-|
C#|-2-2-2-2-x-2-2-2-2-2-2/5-5-5-5-x-7-7-7-7-7-7-|-5-5-5-5-x-5-5-5-5-5-5/7-7-7-7-x-7-7-7-7-7-7-|
G#|---------x---------------------x-5-5-5-5-5-5-|-3-3-3-3-x-3-3-3-3-3-3/5-5-5-5-x-5-5-5-5-5-5-|
C#|---------------------------------------------|---------------------------------------------|


        Figure 1 [clean]
D#|------------------------------------------------------------|----|
A#|---------------7-7-7--8-8-8--7-7-7--8-8-8-10-10-10--12-12-12|----|
F#|-7-7-7--9-9-9-----------------------------------------------|-9~-|
C#|------------------------------------------------------------|----|
G#|------------------------------------------------------------|----|
C#|------------------------------------------------------------|----|


        Chorus:

        Guitar 1 [Distorted]
D#|----------------------------------------(x3)-|---------------------------------------------|
A#|---------------------------------------------|---------------------------------------------|
F#|---------------------------------------------|---------------------------------------------|
C#|-2~------------------2/5~--------7~----------|-5~------------------5/7~--------7~----------|
G#|-2~------------------2/5~--------5~----------|-3~------------------3/5~--------5~----------|
C#|-2~------------------2/5~--------------------|---------------------------------------------|
  |                                                                                      
     |
  |     Guitar 2 [Distorted]                                                             
         |
D#|----------------------------------------(x3)-|---------------------------------------------|
A#|---------------------------------------------|---------------------------------------------|
F#|---------------------------------------------|---------------------------------------------|
C#|-2-2-2-2-x-2-2-2-2-2-2/5-5-5-5-x-7-7-7-7-7-7-|-5-5-5-5-x-5-5-5-5-5-5/7-7-7-7-x-7-7-7-7-7-7-|
G#|-2-2-2-2-x-2-2-2-2-2-2/5-5-5-5-x-5-5-5-5-5-5-|-3-3-3-3-x-3-3-3-3-3-3/5-5-5-5-x-5-5-5-5-5-5-|
C#|-2-2-2-2-x-2-2-2-2-2-2/5-5-5-5-x-------------|---------------------------------------------|
  |                                                                                      
     |
  |     Guitar 3 [Distorted]                                                             
         |
D#|----------------------------------------(x3)-|---------------------------------------------|
A#|-5-5-5-5-x-5-5-5-5-5-5/8-8-8-8-x-------------|---------------------------------------------|
F#|-4-4-4-4-x-4-4-4-4-4-4/7-7-7-7-x-7-7-7-7-7-7-|-5-5-5-5-x-5-5-5-5-5-5/7-7-7-7---7-7-7-7-7-7-|
C#|-2-2-2-2-x-2-2-2-2-2-2/5-5-5-5-x-7-7-7-7-7-7-|-5-5-5-5-x-5-5-5-5-5-5/7-7-7-7-x-7-7-7-7-7-7-|
G#|---------x---------------------x-5-5-5-5-5-5-|-3-3-3-3-x-3-3-3-3-3-3/5-5-5-5-x-5-5-5-5-5-5-|
C#|---------------------------------------------|---------------------------------------------|


        Verse:

        Guitar 1 [Distorted]
D#|----------------------------------------(x3)-|---------------------------------------------|
A#|---------------------------------------------|---------------------------------------------|
F#|---------------------------------------------|---------------------------------------------|
C#|-2~------------------2/5~--------7~----------|-5~------------------5/7~--------7~----------|
G#|-2~------------------2/5~--------5~----------|-3~------------------3/5~--------5~----------|
C#|-2~------------------2/5~--------------------|---------------------------------------------|
  |                                                                                      
     |
  |     Guitar 2 [clean]                                                                 
         |
D#|----------------------------------------(x3)-|---------------------------------------------|
A#|-5-5-5-5-x-5-5-5-5-5-5/8-8-8-8-x-------------|---------------------------------------------|
F#|-4-4-4-4-x-4-4-4-4-4-4/7-7-7-7-x-7-7-7-7-7-7-|-5-5-5-5-x-5-5-5-5-5-5/7-7-7-7---7-7-7-7-7-7-|
C#|-2-2-2-2-x-2-2-2-2-2-2/5-5-5-5-x-7-7-7-7-7-7-|-5-5-5-5-x-5-5-5-5-5-5/7-7-7-7-x-7-7-7-7-7-7-|
G#|---------x---------------------x-5-5-5-5-5-5-|-3-3-3-3-x-3-3-3-3-3-3/5-5-5-5-x-5-5-5-5-5-5-|
C#|---------------------------------------------|---------------------------------------------|


        Figure 2 [Distorted]
D#|---------|----|
A#|---------|----|
F#|-------7h|-9~-|
C#|-7h9-----|----|
G#|---------|----|
C#|---------|----|


        Figure 1 [Clean]
D#|------------------------------------------------------------|----|
A#|---------------7-7-7--8-8-8--7-7-7--8-8-8-10-10-10--12-12-12|----|
F#|-7-7-7--9-9-9-----------------------------------------------|-9~-|
C#|------------------------------------------------------------|----|
G#|------------------------------------------------------------|----|
C#|------------------------------------------------------------|----|


        Chorus 2:

        Guitar 1 [Distorted]
D#|----------------------------------------(x3)-|---------------------------------------------|
A#|---------------------------------------------|---------------------------------------------|
F#|---------------------------------------------|---------------------------------------------|
C#|-2~------------------2/5~--------7~----------|-5~------------------5/7~--------7~----------|
G#|-2~------------------2/5~--------5~----------|-3~------------------3/5~--------5~----------|
C#|-2~------------------2/5~--------------------|---------------------------------------------|
  |                                                                                      
     |
  |     Guitar 2 [Distorted]                                                             
         |
D#|----------------------------------------(x3)-|---------------------------------------------|
A#|---------------------------------------------|---------------------------------------------|
F#|---------------------------------------------|---------------------------------------------|
C#|-2-2-2-2-x-2-2-2-2-2-2/5-5-5-5-x-7-7-7-7-7-7-|-5-5-5-5-x-5-5-5-5-5-5/7-7-7-7-x-7-7-7-7-7-7-|
G#|-2-2-2-2-x-2-2-2-2-2-2/5-5-5-5-x-5-5-5-5-5-5-|-3-3-3-3-x-3-3-3-3-3-3/5-5-5-5-x-5-5-5-5-5-5-|
C#|-2-2-2-2-x-2-2-2-2-2-2/5-5-5-5-x-------------|---------------------------------------------|
  |                                                                                      
     |
  |     Guitar 3 [Distorted]                                                             
         |
D#|----------------------------------------(x3)-|---------------------------------------------|
A#|-5-5-5-5-x-5-5-5-5-5-5/8-8-8-8-x-------------|---------------------------------------------|
F#|-4-4-4-4-x-4-4-4-4-4-4/7-7-7-7-x-7-7-7-7-7-7-|-5-5-5-5-x-5-5-5-5-5-5/7-7-7-7---7-7-7-7-7-7-|
C#|-2-2-2-2-x-2-2-2-2-2-2/5-5-5-5-x-7-7-7-7-7-7-|-5-5-5-5-x-5-5-5-5-5-5/7-7-7-7-x-7-7-7-7-7-7-|
G#|---------x---------------------x-5-5-5-5-5-5-|-3-3-3-3-x-3-3-3-3-3-3/5-5-5-5-x-5-5-5-5-5-5-|
C#|---------------------------------------------|---------------------------------------------|

        Guitar 1 [Distorted]
D#|----------------------------------------(x3)-|---------------------------------------------|
A#|---------------------------------------------|---------------------------------------------|
F#|---------------------------------------------|---------------------------------------------|
C#|-2~------------------2/5~--------7~----------|-5~------------------5/7~--------7~----------|
G#|-2~------------------2/5~--------5~----------|-3~------------------3/5~--------5~----------|
C#|-2~------------------2/5~--------------------|---------------------------------------------|
  |                                                                                      
     |
  |     Guitar 2 [Distorted]                                                             
         |
D#|----------------------------------------(x3)-|---------------------------------------------|
A#|---------------------------------------------|---------------------------------------------|
F#|---------------------------------------------|---------------------------------------------|
C#|-2-2-2-2-x-2-2-2-2-2-2/5-5-5-5-x-7-7-7-7-7-7-|-5-5-5-5-x-5-5-5-5-5-5/7-7-7-7-x-7-7-7-7-7-7-|
G#|-2-2-2-2-x-2-2-2-2-2-2/5-5-5-5-x-5-5-5-5-5-5-|-3-3-3-3-x-3-3-3-3-3-3/5-5-5-5-x-5-5-5-5-5-5-|
C#|-2-2-2-2-x-2-2-2-2-2-2/5-5-5-5-x-------------|---------------------------------------------|
  |                                                                                      
     |
  |     Guitar 3 [Distorted]                                                             
         |
D#|----------------------------------------(x3)-|---------------------------------------------|
A#|-5-5-5-5-x-5-5-5-5-5-5/8-8-8-8-x-------------|---------------------------------------------|
F#|-4-4-4-4-x-4-4-4-4-4-4/7-7-7-7-x-7-7-7-7-7-7-|-5-5-5-5-x-5-5-5-5-5-5/7-7-7-7---7-7-7-7-7-7-|
C#|-2-2-2-2-x-2-2-2-2-2-2/5-5-5-5-x-7-7-7-7-7-7-|-5-5-5-5-x-5-5-5-5-5-5/7-7-7-7-x-7-7-7-7-7-7-|
G#|---------x---------------------x-5-5-5-5-5-5-|-3-3-3-3-x-3-3-3-3-3-3/5-5-5-5-x-5-5-5-5-5-5-|
C#|---------------------------------------------|---------------------------------------------|

        Guitar 1 [Distorted]
D#|---------------------------------------------|---------------------------------------------|
A#|---------------------------------------------|---------------------------------------------|
F#|---------------------------------------------|---------------------------------------------|
C#|-5~------------------5/7~--------7~----------|-5~------------------5/7~--------7~----------|
G#|-3~------------------3/5~--------5~----------|-3~------------------3/5~--------5~----------|
C#|---------------------------------------------|---------------------------------------------|
  |                                                                                      
     |
  |     Guitar 2 [Distorted]                                                             
         |
D#|---------------------------------------------|---------------------------------------------|
A#|---------------------------------------------|---------------------------------------------|
F#|---------------------------------------------|---------------------------------------------|
C#|-5-5-5-5-x-5-5-5-5-5-5/7-7-7-7-x-7-7-7-7-7-7-|-5-5-5-5-x-5-5-5-5-5-5/7-7-7-7-x-7-7-7-7-7-7-|
G#|-3-3-3-3-x-3-3-3-3-3-3/5-5-5-5-x-5-5-5-5-5-5-|-3-3-3-3-x-3-3-3-3-3-3/5-5-5-5-x-5-5-5-5-5-5-|
C#|---------------------------------------------|---------------------------------------------|
  |                                                                                      
     |
  |     Guitar 3 [Distorted]                                                             
         |
D#|---------------------------------------------|---------------------------------------------|
A#|---------------------------------------------|---------------------------------------------|
F#|-5-5-5-5-x-5-5-5-5-5-5/7-7-7-7-x-7-7-7-7-7-7-|-5-5-5-5-x-5-5-5-5-5-5/7-7-7-7---7-7-7-7-7-7-|
C#|-5-5-5-5-x-5-5-5-5-5-5/7-7-7-7-x-7-7-7-7-7-7-|-5-5-5-5-x-5-5-5-5-5-5/7-7-7-7-x-7-7-7-7-7-7-|
G#|-3-3-3-3-x-3-3-3-3-3-3/5-5-5-5-x-5-5-5-5-5-5-|-3-3-3-3-x-3-3-3-3-3-3/5-5-5-5-x-5-5-5-5-5-5-|
C#|---------------------------------------------|---------------------------------------------|


        Solo:

        Guitar [Distorted/Slight Wah]
D#|-------------------------------------------------------|
A#|-----------------------------------------7-7-9-9br-7---|
F#|-9~-9~-9~-9~-9-9p7---7b------------------7-7-9-9br-7---|
C#|-------------------9----9-----7---7-9~-9-------------9-|
G#|--------------------------7h9---9----------------------|
C#|-------------------------------------------------------|

D#|-------------------------7---------10-9h10p9p7-9-7----7-|
A#|-7b-7b-7b-7b-7b-7-7----7---10-10b------------------10---|
F#|-7b-7b-7b-7b-7b-7-7-9b----------------------------------|
C#|--------------------------------------------------------|
G#|--------------------------------------------------------|
C#|--------------------------------------------------------|

D#|------------------------------------------------------------------------------------------|
A#|-10brp7---7-10brp7---7-10brp7---7-10brp7---7-10brp7---7-----------------------------------|
F#|--------9----------9----------9----------9----------9---9brp7-9-7-------------------------|
C#|------------------------------------------------------------------9-9p7---7-----------7---|
G#|------------------------------------------------------------------------9---9-8-7-8-9---9-|
C#|------------------------------------------------------------------------------------------|

D#|-------------------------------------------------------------|-----|
A#|-------------------------------------------7---7-9-9br-7-9-7-|-----|
F#|----------------5---5-7~-------------------7---7-9-9br-7-9-7-|-9~--|
C#|-----5---5-7~-7---7-------------7---7-9~-9---9---------------|-----|
G#|-5h7---7--------------------7h9---9--------------------------|-----|
C#|-------------------------------------------------------------|-----|


        Bit played ater solo

        Guitar 1 [Distorted]
D#|----------------------------------------------|----------------------------------------------|
A#|----------------------------------------------|----------------------------------------------|
F#|----------------------------------------------|----------------------------------------------|
C#|----------------------------------------------|-2~---------------------2/5~----------7~------|
G#|----------------------------------------------|-2~---------------------2/5~----------5~------|
C#|----------------------------------------------|-2----------------------2/5~------------------|
  |                                                                                      
       |
  |     Guitar 2 [clean]  (actually keys/piano)                                          
           |
D#|----------------------------------------------|----------------------------------------------|
A#|-5-----5-----5-----5------8-----8-------------|-5-----5-----5-----5------8-----8-------------|
F#|-4-----4-----4-----4------7-----7-----7-----7-|-4-----4-----4-----4------7-----7-----7-----7-|
C#|-2-----2-----2-----2------5-----5-----7-----7-|-2-----2-----2-----2------5-----5-----7-----7-|
G#|--------------------------------------5-----5-|--------------------------------------5-----5-|
C#|----------------------------------------------|----------------------------------------------|


        Chorus 3:

        Guitar 1 [Distorted]
D#|----------------------------------------(x3)-|---------------------------------------------|
A#|---------------------------------------------|---------------------------------------------|
F#|---------------------------------------------|---------------------------------------------|
C#|-2~------------------2/5~--------7~----------|-5~------------------5/7~--------7~----------|
G#|-2~------------------2/5~--------5~----------|-3~------------------3/5~--------5~----------|
C#|-2~------------------2/5~--------------------|---------------------------------------------|
  |                                                                                      
     |
  |     Guitar 2 [Distorted]                                                             
         |
D#|----------------------------------------(x3)-|---------------------------------------------|
A#|---------------------------------------------|---------------------------------------------|
F#|---------------------------------------------|---------------------------------------------|
C#|-2-2-2-2-x-2-2-2-2-2-2/5-5-5-5-x-7-7-7-7-7-7-|-5-5-5-5-x-5-5-5-5-5-5/7-7-7-7-x-7-7-7-7-7-7-|
G#|-2-2-2-2-x-2-2-2-2-2-2/5-5-5-5-x-5-5-5-5-5-5-|-3-3-3-3-x-3-3-3-3-3-3/5-5-5-5-x-5-5-5-5-5-5-|
C#|-2-2-2-2-x-2-2-2-2-2-2/5-5-5-5-x-------------|---------------------------------------------|
  |                                                                                      
     |
  |     Guitar 3 [Distorted]                                                             
         |
D#|----------------------------------------(x3)-|---------------------------------------------|
A#|-5-5-5-5-x-5-5-5-5-5-5/8-8-8-8-x-------------|---------------------------------------------|
F#|-4-4-4-4-x-4-4-4-4-4-4/7-7-7-7-x-7-7-7-7-7-7-|-5-5-5-5-x-5-5-5-5-5-5/7-7-7-7---7-7-7-7-7-7-|
C#|-2-2-2-2-x-2-2-2-2-2-2/5-5-5-5-x-7-7-7-7-7-7-|-5-5-5-5-x-5-5-5-5-5-5/7-7-7-7-x-7-7-7-7-7-7-|
G#|---------x---------------------x-5-5-5-5-5-5-|-3-3-3-3-x-3-3-3-3-3-3/5-5-5-5-x-5-5-5-5-5-5-|
C#|---------------------------------------------|---------------------------------------------|

        Guitar 1 [Distorted]
D#|---------------------------------------------|---------------------------------------------|
A#|---------------------------------------------|---------------------------------------------|
F#|---------------------------------------------|---------------------------------------------|
C#|-5~------------------5/7~--------7~----------|-5~------------------5/7~--------7~----------|
G#|-3~------------------3/5~--------5~----------|-3~------------------3/5~--------5~----------|
C#|---------------------------------------------|---------------------------------------------|
  |                                                                                      
     |
  |     Guitar 2 [Distorted]                                                             
         |
D#|---------------------------------------------|---------------------------------------------|
A#|---------------------------------------------|---------------------------------------------|
F#|---------------------------------------------|---------------------------------------------|
C#|-5-5-5-5-x-5-5-5-5-5-5/7-7-7-7-x-7-7-7-7-7-7-|-5-5-5-5-x-5-5-5-5-5-5/7-7-7-7-x-7-7-7-7-7-7-|
G#|-3-3-3-3-x-3-3-3-3-3-3/5-5-5-5-x-5-5-5-5-5-5-|-3-3-3-3-x-3-3-3-3-3-3/5-5-5-5-x-5-5-5-5-5-5-|
C#|---------------------------------------------|---------------------------------------------|
  |                                                                                      
     |
  |     Guitar 3 [Distorted]                                                             
         |
D#|---------------------------------------------|---------------------------------------------|
A#|---------------------------------------------|---------------------------------------------|
F#|-5-5-5-5-x-5-5-5-5-5-5/7-7-7-7-x-7-7-7-7-7-7-|-5-5-5-5-x-5-5-5-5-5-5/7-7-7-7---7-7-7-7-7-7-|
C#|-5-5-5-5-x-5-5-5-5-5-5/7-7-7-7-x-7-7-7-7-7-7-|-5-5-5-5-x-5-5-5-5-5-5/7-7-7-7-x-7-7-7-7-7-7-|
G#|-3-3-3-3-x-3-3-3-3-3-3/5-5-5-5-x-5-5-5-5-5-5-|-3-3-3-3-x-3-3-3-3-3-3/5-5-5-5-x-5-5-5-5-5-5-|
C#|---------------------------------------------|---------------------------------------------|


        Ends on:

D#|----|
A#|----|
F#|----|
C#|-2~-|
G#|-2~-|
C#|-2~-|




************************************

| /   slide up
| \   slide down
| h   hammer-on
| p   pull-off
| ~   vibrato
| +   harmonic
| x   Mute note
| b   Bend
| pb  Pre-bend
| br  Bend release
| pbr Pre-bend release
| brb Bend release bend

************************************
Добавлено: 14.07.2013
Другие материалы по этой песне:
  • Аккорды и текст

Страница создана 14.07.2013
http://primanota.ru/misc-unsigned-bands/a-heros-demise-i-am-broken-chords.htm
Привет, Гость.
Предлагаем пройти революционный курс по гитаре.
Подарок от PrimaNota.Ru, забирай!