PrimaNota.ru - самый крупный в мире бесплатный архив песенных текстов, аккордов, табулатур и нот


Misc Unsigned Bands - A Heros Demise - Fear Of The Dark - таба, видео

Регистрация Запомнить меня
Войти через:  Facebook Google Twitter Vk Yandex Mail.ru

Misc Unsigned Bands - A Heros Demise - Fear Of The Dark - таба, видео

Печатать
Просмотров: 66
-------------------------------------------------------------------------------
                             Fear Of The Dark - A Hero's Demise
-------------------------------------------------------------------------------
Tabbed by: Kevin Rogers


Tuning: Drop C#


        Main Riff Rhythm:

D#|---------------------------------------------------------------|
A#|---------------------------------------------------------------|
F#|-----------x-x------x-x-----x-x------x-x------x-x-----x-x------|
C#|------4--4-x-x-4--4-x-x-4-4-x-x-0--0-x-x-0--0-x-x-0-0-x-x------|
G#|------4--4-x-x-4--4-x-x-4-4-x-x-0--0-x-x-0--0-x-x-0-0-x-x------|
C#|------4--4-x-x-4--4-x-x-4-4-x-x-0--0-x-x-0--0-x-x-0-0-x-x------|

D#|---------------------------------------------------------------|
A#|---------------------------------------------------------------|
F#|-----------x-x------x-x-----x-x------x-x------x-x-----x-x------|
C#|------7--7-x-x-7--7-x-x-7-7-x-x-2--2-x-x-2--2-x-x-2-2-x-x------|
G#|------7--7-x-x-7--7-x-x-7-7-x-x-2--2-x-x-2--2-x-x-2-2-x-x------|
C#|------7--7-x-x-7--7-x-x-7-7-x-x-2--2-x-x-2--2-x-x-2-2-x-x------|

D#|---------------------------------------------------------------|
A#|---------------------------------------------------------------|
F#|-----------x-x------x-x-----x-x------x-x------x-x-----x-x------|
C#|------4--4-x-x-4--4-x-x-4-4-x-x-0--0-x-x-0--0-x-x-0-0-x-x------|
G#|------4--4-x-x-4--4-x-x-4-4-x-x-0--0-x-x-0--0-x-x-0-0-x-x------|
C#|------4--4-x-x-4--4-x-x-4-4-x-x-0--0-x-x-0--0-x-x-0-0-x-x------|

D#|---------------------------------------------------------------|
A#|---------------------------------------------------------------|
F#|-----------x-x------x-x-----x-x------x-x------x-x-----x-x------|
C#|------2--2-x-x-2--2-x-x-2-2-x-x-2--2-x-x-2--2-x-x-2-2-x-x------|
G#|------2--2-x-x-2--2-x-x-2-2-x-x-2--2-x-x-2--2-x-x-2-2-x-x------|
C#|------2--2-x-x-2--2-x-x-2-2-x-x-2--2-x-x-2--2-x-x-2-2-x-x------|


        Main Riff Lead:

D#|---------------------------------------------------------------|
A#|---------------------------------------------------------------|
F#|------14-------13-------14------18-----------------------------|
C#|------x--------x--------x-------x------------------------------|
G#|------12-------11-------12------16-----------------------------|
C#|---------------------------------------------------------------|

D#|---------------------------------------------------------------|
A#|---------------------------------------------------------------|
F#|------18-------16-------18------13-------14-------13-----------|
C#|------x--------x--------x-------x--------x--------x------------|
G#|------16-------14-------16------11-------12-------11-----------|
C#|---------------------------------------------------------------|

D#|---------------------------------------------------------------|
A#|---------------------------------------------------------------|
F#|------14-------13-------14------18-----------------------------|
C#|------x--------x--------x-------x------------------------------|
G#|------12-------11-------12------16-----------------------------|
C#|---------------------------------------------------------------|

D#|---------------------------------------------------------------|
A#|---------------------------------------------------------------|
F#|------18-------13~------14~------------------------------------|
C#|------x-------------------------14~------16~------14h16--16~---|
G#|------16-------------------------------------------------------|
C#|---------------------------------------------------------------|


        Verse:

D#|-------------------------------------------------------------------------|
A#|-------------------------------------------------------------------------|
F#|-------------------------------------------------------------------------|
C#|-------------------------------------------------------------------------|
G#|-------------------------------------------------------------------------|
C#|-------------------------------------------------------------------------|

D#|-------------------------------------------------------------------------|
A#|-------------------------------------------------------------------------|
F#|-------------------------------------------------------------------------|
C#|-------------------------------------------------------------------------|
G#|-------------------------------------------------------------------------|
C#|-------------------------------------------------------------------------|

D#|-------------------------------------------------------------------------|
A#|-------------------------------------------------------------------------|
F#|-------------------------------------------------------------------------|
C#|-------------------------------------------------------------------------|
G#|------4-4-4-4-4-4-4-4--4-4-4-4-4-4-4-4-4-4-4-4-4-4-4--4-4-4-4-4-4-4------|
C#|------4-4-4-4-4-4-4-4--4-4-4-4-4-4-4-4-4-4-4-4-4-4-4--4-4-4-4-4-4-4------|

D#|-------------------------------------------------------------------------|
A#|-------------------------------------------------------------------------|
F#|-------------------------------------------------------------------------|
C#|-------------------------------------------------------------------------|
G#|------0-0-0-0-0-0-0-0--0-0-0-0-0-0-0-2-2-2-2-2-2-2-2--2-2-2-2-2-2-2------|
C#|------0-0-0-0-0-0-0-0--0-0-0-0-0-0-0-2-2-2-2-2-2-2-2--2-2-2-2-2-2-2------|


D#|-------------------------------------------------------------------------|
A#|-------------------------------------------------------------------------|
F#|-------------------------------------------------------------------------|
C#|-------------------------------------------------------------------------|
G#|------4-4-4-4-4-4-4-4--4-4-4-4-4-4-4-4-4-4-4-4-4-4-4--4-4-4-4-4-4-4------|
C#|------4-4-4-4-4-4-4-4--4-4-4-4-4-4-4-4-4-4-4-4-4-4-4--4-4-4-4-4-4-4------|

D#|-------------------------------------------------------------------------|
A#|-------------------------------------------------------------------------|
F#|-------------------------------------------------------------------------|
C#|-------------------------------------------------------------------------|
G#|------0-0-0-0-0-0-0-0--0-0-0-0-0-0-0-2-2-2-2-2-2-2-2--2-2-2-2-2-2-2------|
C#|------0-0-0-0-0-0-0-0--0-0-0-0-0-0-0-2-2-2-2-2-2-2-2--2-2-2-2-2-2-2------|


D#|-------------------------------------------------------------------------|
A#|-------------------------------------------------------------------------|
F#|-------------------------------------------------------------------------|
C#|-------------------------------------------------------------------------|
G#|------4-4-4-4-4-4-4-4--4-4-4-4-4-4-4-4-4-4-4-4-4-4-4--4-4-4-4-4-4-4------|
C#|------4-4-4-4-4-4-4-4--4-4-4-4-4-4-4-4-4-4-4-4-4-4-4--4-4-4-4-4-4-4------|

D#|-------------------------------------------------------------------------|
A#|-------------------------------------------------------------------------|
F#|-------------------------------------------------------------------------|
C#|-------------------------------------------------------------------------|
G#|------0-0-0-0-0-0-0-0--0-0-0-0-0-0-0-2-2-2-2-2-2-2-2--2-2-2-2-2-2-2------|
C#|------0-0-0-0-0-0-0-0--0-0-0-0-0-0-0-2-2-2-2-2-2-2-2--2-2-2-2-2-2-2------|


        Pre Chorus:

D#|-------------------------------------------------------------------------|
A#|-------------------------------------------------------------------------|
F#|-------------------------------------------------------------------------|
C#|------4------------------------------2----------------0------------------|
G#|------4------------------------------2----------------0------------------|
C#|------4------------------------------2----------------0------------------|


        Chorus:

D#|---------------------------------------------------------------|
A#|---------------------------------------------------------------|
F#|-----------x-x------x-x-----x-x------x-x------x-x-----x-x------|
C#|------4--4-x-x-4--4-x-x-4-4-x-x-0--0-x-x-0--0-x-x-0-0-x-x------|
G#|------4--4-x-x-4--4-x-x-4-4-x-x-0--0-x-x-0--0-x-x-0-0-x-x------|
C#|------4--4-x-x-4--4-x-x-4-4-x-x-0--0-x-x-0--0-x-x-0-0-x-x------|

D#|---------------------------------------------------------------|
A#|---------------------------------------------------------------|
F#|-----------x-x------x-x-----x-x------x-x------x-x-----x-x------|
C#|------7--7-x-x-7--7-x-x-7-7-x-x-2--2-x-x-2--2-x-x-2-2-x-x------|
G#|------7--7-x-x-7--7-x-x-7-7-x-x-2--2-x-x-2--2-x-x-2-2-x-x------|
C#|------7--7-x-x-7--7-x-x-7-7-x-x-2--2-x-x-2--2-x-x-2-2-x-x------|

D#|---------------------------------------------------------------|
A#|---------------------------------------------------------------|
F#|-----------x-x------x-x-----x-x------x-x------x-x-----x-x------|
C#|------4--4-x-x-4--4-x-x-4-4-x-x-0--0-x-x-0--0-x-x-0-0-x-x------|
G#|------4--4-x-x-4--4-x-x-4-4-x-x-0--0-x-x-0--0-x-x-0-0-x-x------|
C#|------4--4-x-x-4--4-x-x-4-4-x-x-0--0-x-x-0--0-x-x-0-0-x-x------|

D#|---------------------------------------------------------------|
A#|---------------------------------------------------------------|
F#|-----------x-x------x-x-----x-x------x-x------x-x-----x-x------|
C#|------2--2-x-x-2--2-x-x-2-2-x-x-2--2-x-x-2--2-x-x-2-2-x-x------|
G#|------2--2-x-x-2--2-x-x-2-2-x-x-2--2-x-x-2--2-x-x-2-2-x-x------|
C#|------2--2-x-x-2--2-x-x-2-2-x-x-2--2-x-x-2--2-x-x-2-2-x-x------|


        Main Riff Rhythm:

D#|---------------------------------------------------------------|
A#|---------------------------------------------------------------|
F#|-----------x-x------x-x-----x-x------x-x------x-x-----x-x------|
C#|------4--4-x-x-4--4-x-x-4-4-x-x-0--0-x-x-0--0-x-x-0-0-x-x------|
G#|------4--4-x-x-4--4-x-x-4-4-x-x-0--0-x-x-0--0-x-x-0-0-x-x------|
C#|------4--4-x-x-4--4-x-x-4-4-x-x-0--0-x-x-0--0-x-x-0-0-x-x------|

D#|---------------------------------------------------------------|
A#|---------------------------------------------------------------|
F#|-----------x-x------x-x-----x-x------x-x------x-x-----x-x------|
C#|------7--7-x-x-7--7-x-x-7-7-x-x-2--2-x-x-2--2-x-x-2-2-x-x------|
G#|------7--7-x-x-7--7-x-x-7-7-x-x-2--2-x-x-2--2-x-x-2-2-x-x------|
C#|------7--7-x-x-7--7-x-x-7-7-x-x-2--2-x-x-2--2-x-x-2-2-x-x------|

D#|---------------------------------------------------------------|
A#|---------------------------------------------------------------|
F#|-----------x-x------x-x-----x-x------x-x------x-x-----x-x------|
C#|------4--4-x-x-4--4-x-x-4-4-x-x-0--0-x-x-0--0-x-x-0-0-x-x------|
G#|------4--4-x-x-4--4-x-x-4-4-x-x-0--0-x-x-0--0-x-x-0-0-x-x------|
C#|------4--4-x-x-4--4-x-x-4-4-x-x-0--0-x-x-0--0-x-x-0-0-x-x------|

D#|---------------------------------------------------------------|
A#|---------------------------------------------------------------|
F#|-----------x-x------x-x-----x-x------x-x------x-x-----x-x------|
C#|------2--2-x-x-2--2-x-x-2-2-x-x-2--2-x-x-2--2-x-x-2-2-x-x------|
G#|------2--2-x-x-2--2-x-x-2-2-x-x-2--2-x-x-2--2-x-x-2-2-x-x------|
C#|------2--2-x-x-2--2-x-x-2-2-x-x-2--2-x-x-2--2-x-x-2-2-x-x------|


        Main Riff Lead:

D#|---------------------------------------------------------------|
A#|---------------------------------------------------------------|
F#|------14-------13-------14------18-----------------------------|
C#|------x--------x--------x-------x------------------------------|
G#|------12-------11-------12------16-----------------------------|
C#|---------------------------------------------------------------|

D#|---------------------------------------------------------------|
A#|---------------------------------------------------------------|
F#|------18-------16-------18------13-------14-------13-----------|
C#|------x--------x--------x-------x--------x--------x------------|
G#|------16-------14-------16------11-------12-------11-----------|
C#|---------------------------------------------------------------|

D#|---------------------------------------------------------------|
A#|---------------------------------------------------------------|
F#|------14-------13-------14------18-----------------------------|
C#|------x--------x--------x-------x------------------------------|
G#|------12-------11-------12------16-----------------------------|
C#|---------------------------------------------------------------|

D#|---------------------------------------------------------------|
A#|---------------------------------------------------------------|
F#|------18-------13~------14~------------------------------------|
C#|------x-------------------------14~------16~------14h16--16~---|
G#|------16-------------------------------------------------------|
C#|---------------------------------------------------------------|

        Verse:

D#|-------------------------------------------------------------------------|
A#|-------------------------------------------------------------------------|
F#|-------------------------------------------------------------------------|
C#|-------------------------------------------------------------------------|
G#|-------------------------------------------------------------------------|
C#|-------------------------------------------------------------------------|

D#|-------------------------------------------------------------------------|
A#|-------------------------------------------------------------------------|
F#|-------------------------------------------------------------------------|
C#|-------------------------------------------------------------------------|
G#|-------------------------------------------------------------------------|
C#|-------------------------------------------------------------------------|

D#|-------------------------------------------------------------------------|
A#|-------------------------------------------------------------------------|
F#|-------------------------------------------------------------------------|
C#|-------------------------------------------------------------------------|
G#|------4-4-4-4-4-4-4-4--4-4-4-4-4-4-4-4-4-4-4-4-4-4-4--4-4-4-4-4-4-4------|
C#|------4-4-4-4-4-4-4-4--4-4-4-4-4-4-4-4-4-4-4-4-4-4-4--4-4-4-4-4-4-4------|

D#|-------------------------------------------------------------------------|
A#|-------------------------------------------------------------------------|
F#|-------------------------------------------------------------------------|
C#|-------------------------------------------------------------------------|
G#|------0-0-0-0-0-0-0-0--0-0-0-0-0-0-0-2-2-2-2-2-2-2-2--2-2-2-2-2-2-2------|
C#|------0-0-0-0-0-0-0-0--0-0-0-0-0-0-0-2-2-2-2-2-2-2-2--2-2-2-2-2-2-2------|


D#|-------------------------------------------------------------------------|
A#|-------------------------------------------------------------------------|
F#|-------------------------------------------------------------------------|
C#|-------------------------------------------------------------------------|
G#|------4-4-4-4-4-4-4-4--4-4-4-4-4-4-4-4-4-4-4-4-4-4-4--4-4-4-4-4-4-4------|
C#|------4-4-4-4-4-4-4-4--4-4-4-4-4-4-4-4-4-4-4-4-4-4-4--4-4-4-4-4-4-4------|

D#|-------------------------------------------------------------------------|
A#|-------------------------------------------------------------------------|
F#|-------------------------------------------------------------------------|
C#|-------------------------------------------------------------------------|
G#|------0-0-0-0-0-0-0-0--0-0-0-0-0-0-0-2-2-2-2-2-2-2-2--2-2-2-2-2-2-2------|
C#|------0-0-0-0-0-0-0-0--0-0-0-0-0-0-0-2-2-2-2-2-2-2-2--2-2-2-2-2-2-2------|


D#|-------------------------------------------------------------------------|
A#|-------------------------------------------------------------------------|
F#|-------------------------------------------------------------------------|
C#|-------------------------------------------------------------------------|
G#|------4-4-4-4-4-4-4-4--4-4-4-4-4-4-4-4-4-4-4-4-4-4-4--4-4-4-4-4-4-4------|
C#|------4-4-4-4-4-4-4-4--4-4-4-4-4-4-4-4-4-4-4-4-4-4-4--4-4-4-4-4-4-4------|

D#|-------------------------------------------------------------------------|
A#|-------------------------------------------------------------------------|
F#|-------------------------------------------------------------------------|
C#|-------------------------------------------------------------------------|
G#|------0-0-0-0-0-0-0-0--0-0-0-0-0-0-0-2-2-2-2-2-2-2-2--2-2-2-2-2-2-2------|
C#|------0-0-0-0-0-0-0-0--0-0-0-0-0-0-0-2-2-2-2-2-2-2-2--2-2-2-2-2-2-2------|


        Lead Over 2nd Part Of Verse 2:

D#|-------------------------------------------------------------------------|
A#|----7-11-9-7--11-9----11-9----11-9---7-11-9-7--11-9-12--10-9-10--9-7-10--|
F#|-------------------9-------7-------6-------------------------------------|
C#|-------------------------------------------------------------------------|
G#|-------------------------------------------------------------------------|
C#|-------------------------------------------------------------------------|

D#|-------------------------------------------------------------------------|
A#|----7-11-9-7--11-9----11-9----11-9---7-11-9-7--11-9-12--10-9-10--9-7~----|
F#|-------------------9-------7-------6-------------------------------------|
C#|-------------------------------------------------------------------------|
G#|-------------------------------------------------------------------------|
C#|-------------------------------------------------------------------------|

D#|-------------------------------------------------------------------------|
A#|----7-11-9-7--11-9----11-9----11-9---7-11-9-7--11-9-12--10-9-10--9-7-10--|
F#|-------------------9-------7-------6-------------------------------------|
C#|-------------------------------------------------------------------------|
G#|-------------------------------------------------------------------------|
C#|-------------------------------------------------------------------------|

D#|-------------------------------------------------------------------------|
A#|----7-11-9-7--11-9----11-9----11-9---7-11-9-7--11-9-12--10-9-10--9-7~----|
F#|-------------------9-------7-------6-------------------------------------|
C#|-------------------------------------------------------------------------|
G#|-------------------------------------------------------------------------|
C#|-------------------------------------------------------------------------|


        Pre Chorus:

D#|-------------------------------------------------------------------------|
A#|-------------------------------------------------------------------------|
F#|-------------------------------------------------------------------------|
C#|------4------------------------------2----------------0------------------|
G#|------4------------------------------2----------------0------------------|
C#|------4------------------------------2----------------0------------------|


        Lead Over 2nd Pre Chorus:

D#|-------------------------------------------------------------------------|
A#|----7-11-9-7--11-9-7--11-9-7-11-9-7-7-11-9-7--11-9-7--11-9-7--11-9-7-----|
F#|-------------------------------------------------------------------------|
C#|-------------------------------------------------------------------------|
G#|-------------------------------------------------------------------------|
C#|-------------------------------------------------------------------------|


        Chorus:

D#|---------------------------------------------------------------|
A#|---------------------------------------------------------------|
F#|-----------x-x------x-x-----x-x------x-x------x-x-----x-x------|
C#|------4--4-x-x-4--4-x-x-4-4-x-x-0--0-x-x-0--0-x-x-0-0-x-x------|
G#|------4--4-x-x-4--4-x-x-4-4-x-x-0--0-x-x-0--0-x-x-0-0-x-x------|
C#|------4--4-x-x-4--4-x-x-4-4-x-x-0--0-x-x-0--0-x-x-0-0-x-x------|

D#|---------------------------------------------------------------|
A#|---------------------------------------------------------------|
F#|-----------x-x------x-x-----x-x------x-x------x-x-----x-x------|
C#|------7--7-x-x-7--7-x-x-7-7-x-x-2--2-x-x-2--2-x-x-2-2-x-x------|
G#|------7--7-x-x-7--7-x-x-7-7-x-x-2--2-x-x-2--2-x-x-2-2-x-x------|
C#|------7--7-x-x-7--7-x-x-7-7-x-x-2--2-x-x-2--2-x-x-2-2-x-x------|

D#|---------------------------------------------------------------|
A#|---------------------------------------------------------------|
F#|-----------x-x------x-x-----x-x------x-x------x-x-----x-x------|
C#|------4--4-x-x-4--4-x-x-4-4-x-x-0--0-x-x-0--0-x-x-0-0-x-x------|
G#|------4--4-x-x-4--4-x-x-4-4-x-x-0--0-x-x-0--0-x-x-0-0-x-x------|
C#|------4--4-x-x-4--4-x-x-4-4-x-x-0--0-x-x-0--0-x-x-0-0-x-x------|

D#|---------------------------------------------------------------|
A#|---------------------------------------------------------------|
F#|-----------x-x------x-x-----x-x------x-x------x-x-----x-x------|
C#|------2--2-x-x-2--2-x-x-2-2-x-x-2--2-x-x-2--2-x-x-2-2-x-x------|
G#|------2--2-x-x-2--2-x-x-2-2-x-x-2--2-x-x-2--2-x-x-2-2-x-x------|
C#|------2--2-x-x-2--2-x-x-2-2-x-x-2--2-x-x-2--2-x-x-2-2-x-x------|


D#|---------------------------------------------------------------|
A#|---------------------------------------------------------------|
F#|-----------x-x------x-x-----x-x------x-x------x-x-----x-x------|
C#|------4--4-x-x-4--4-x-x-4-4-x-x-0--0-x-x-0--0-x-x-0-0-x-x------|
G#|------4--4-x-x-4--4-x-x-4-4-x-x-0--0-x-x-0--0-x-x-0-0-x-x------|
C#|------4--4-x-x-4--4-x-x-4-4-x-x-0--0-x-x-0--0-x-x-0-0-x-x------|

D#|---------------------------------------------------------------|
A#|---------------------------------------------------------------|
F#|-----------x-x------x-x-----x-x------x-x------x-x-----x-x------|
C#|------7--7-x-x-7--7-x-x-7-7-x-x-2--2-x-x-2--2-x-x-2-2-x-x------|
G#|------7--7-x-x-7--7-x-x-7-7-x-x-2--2-x-x-2--2-x-x-2-2-x-x------|
C#|------7--7-x-x-7--7-x-x-7-7-x-x-2--2-x-x-2--2-x-x-2-2-x-x------|

D#|---------------------------------------------------------------|
A#|---------------------------------------------------------------|
F#|-----------x-x------x-x-----x-x------x-x------x-x-----x-x------|
C#|------4--4-x-x-4--4-x-x-4-4-x-x-0--0-x-x-0--0-x-x-0-0-x-x------|
G#|------4--4-x-x-4--4-x-x-4-4-x-x-0--0-x-x-0--0-x-x-0-0-x-x------|
C#|------4--4-x-x-4--4-x-x-4-4-x-x-0--0-x-x-0--0-x-x-0-0-x-x------|

D#|---------------------------------------------------------------|
A#|---------------------------------------------------------------|
F#|-----------x-x------x-x-----x-x------x-x------x-x-----x-x------|
C#|------2--2-x-x-2--2-x-x-2-2-x-x-2--2-x-x-2--2-x-x-2-2-x-x------|
G#|------2--2-x-x-2--2-x-x-2-2-x-x-2--2-x-x-2--2-x-x-2-2-x-x------|
C#|------2--2-x-x-2--2-x-x-2-2-x-x-2--2-x-x-2--2-x-x-2-2-x-x------|


        Solo (Over Chorus) [guitar 1]:

D#|---------------------------------------------------------------------------|
A#|---------------------------------------------------------------------------|
F#|---------------------------------------------------------------------------|
C#|---------------------------------------------------------------------------|
G#|------9~----------------12-12\7--12-12\7--12-11--12--11-7h9----------------|
C#|---------------------------------------------------------------------------|

D#|---------------------------------------------------------------------------|
A#|---------------------------------------------------------------------------|
F#|---------------------------------------------------------------------------|
C#|---------------------------------------------------------------------------|
G#|------9~----------------12-12\7--12-12\7--12-11--12--11-7h9----------------|
C#|---------------------------------------------------------------------------|

D#|---------------------------------------------------------------------------|
A#|---------------------------------------------------------------------------|
F#|---------------------------------------------------------------------------|
C#|---------------------------------------------------------------------------|
G#|------9~----------------12-12\7--12-12\7--12-11--12--11-7h9----------------|
C#|---------------------------------------------------------------------------|

D#|---------------------------------------------------------------------------|
A#|---------------------------------------------------------------------------|
F#|---------------------------------------------------------------------------|
C#|---------------------------------------------------------------------------|
G#|------9~----------------12-12\7--12-12\7--12-11--12--11-7h9----------------|
C#|---------------------------------------------------------------------------|

D#|------------------------------------------------------------------------------|
A#|------------------------------------------------------------------------------|
F#|------------------------------------------------------------------------------|
C#|------------------------------------------------------------------------------|
G#|-7h9h11-7h9h11-7h9h11-7h9h11-7h9h11~-9h11h12-9h11h12-9h11h12-9h11h12-9h11h12~-|
C#|------------------------------------------------------------------------------|

D#|---------------------------------------------------------------------------------------------|
A#|---------------------------------------------------------------------------------------------|
F#|---------------------------------------------------------------------------------------------|
C#|---------------------------------------------------------------------------------------------|
G#|-11h12h14-11h12h14-11h12h14-11h12h14-11h12h14~-12h14h16-12h14h16-12h14h16-12h14h16-12h14h16~-|
C#|---------------------------------------------------------------------------------------------|

D#|---------------------------------------------------------|
A#|---------------------------------------------------------|
F#|---------------------------------------------------------|
C#|---------------------------------------------------------|
G#|-7h9h11-7h9h11-7h9h11-7h9h11-7h9h11-7h9h11-7h9h11-7h9h11-|
C#|---------------------------------------------------------|

D#|-----------------------------------------------------------------|
A#|-----------------------------------------------------------------|
F#|-----------------------------------------------------------------|
C#|-----------------------------------------------------------------|
G#|-9h11h12-9h11h12-9h11h12-9h11h12-9h11h12-9h11h12-9h11h12-9h11h12-|
C#|-----------------------------------------------------------------|

D#|-------------------------------------------------------------------------|
A#|-------------------------------------------------------------------------|
F#|-------------------------------------------------------------------------|
C#|-------------------------------------------------------------------------|
G#|-11h12h14-11h12h14-11h12h14-11h12h14-11h12h14-11h12h14-11h12h14-11h12h14-|
C#|-------------------------------------------------------------------------|

D#|-------------------------------------------------------------------------|
A#|-------------------------------------------------------------------------|
F#|-------------------------------------------------------------------------|
C#|-------------------------------------------------------------------------|
G#|-12h14h16-12h14h16-12h14h16-12h14h16-12h14h16-12h14h16-12h14h16-12h14h16-|
C#|-------------------------------------------------------------------------|

D#|----------------------------------------------|
A#|-----------5----------------------------------|
F#|-4brb--------4pbr--2-------------4b-4---2---4-|
C#|----------------------4---2---4---------------|
G#|----------------------------------------------|
C#|----------------------------------------------|

D#|--------------------------------------------------|
A#|-5brb~---5pb-5pb-5pbr-5-5-5-2-2-2-2---------------|
F#|------------------------------------4-4-4-4-2-2-2-|
C#|--------------------------------------------------|
G#|--------------------------------------------------|
C#|--------------------------------------------------|

D#|---------------------------------------------------------|
A#|---------------------------------------------------------|
F#|-----2-2-x-----2-2-x-------------2-2-x-----2-2-x---------|
C#|-2h4-------2h4-------2h4-x-x-2h4-------2h4-------2h4-x-x-|
G#|---------------------------------------------------------|
C#|---------------------------------------------------------|

D#|---------------------------------------------------------------|
A#|---------------------------------------------------------------|
F#|------2--------1--------2-------6~-----------------------------|
C#|---------------------------------------------------------------|
G#|---------------------------------------------------------------|
C#|---------------------------------------------------------------|

D#|---------------------------------------------------------------|
A#|---------------------------------------------------------------|
F#|------6--------4--------6-------1--------2--------1------------|
C#|---------------------------------------------------------------|
G#|---------------------------------------------------------------|
C#|---------------------------------------------------------------|

D#|---------------------------------------------------------------|
A#|---------------------------------------------------------------|
F#|------2--------1--------2-------6~-----------------------------|
C#|---------------------------------------------------------------|
G#|---------------------------------------------------------------|
C#|---------------------------------------------------------------|

D#|---------------------------------------------------------------|
A#|---------------------------------------------------------------|
F#|------6--------13~------14~------------------------------------|
C#|-------------------------------14~------16~------14h16--16~----|
G#|---------------------------------------------------------------|
C#|---------------------------------------------------------------|


        Solo (Over Chorus) [guitar 2]:

D#|---------------------------------------------------------------------------|
A#|---------------------------------------------------------------------------|
F#|---------------------------------------------------------------------------|
C#|---------------------------------------------------------------------------|
G#|---------------------------------------------------------------------------|
C#|---------------------------------------------------------------------------|

D#|---------------------------------------------------------------------------|
A#|---------------------------------------------------------------------------|
F#|---------------------------------------------------------------------------|
C#|---------------------------------------------------------------------------|
G#|---------------------------------------------------------------------------|
C#|---------------------------------------------------------------------------|

D#|---------------------------------------------------------------------------|
A#|---------------------------------------------------------------------------|
F#|------11~---------------14-14\9--14-14\9--14-13--14--13-9h11---------------|
C#|---------------------------------------------------------------------------|
G#|---------------------------------------------------------------------------|
C#|---------------------------------------------------------------------------|

D#|---------------------------------------------------------------------------|
A#|---------------------------------------------------------------------------|
F#|------11~---------------14-14\9--14-14\9--14-13--14--13-9h11---------------|
C#|---------------------------------------------------------------------------|
G#|---------------------------------------------------------------------------|
C#|---------------------------------------------------------------------------|

D#|----------------------------------------------------------------------------------------|
A#|----------------------------------------------------------------------------------------|
F#|-9h11h13-9h11h13-9h11h13-9h11h13-9h11h13~-11h13h14-11h13h14-11h13h14-11h13h14-11h13h14~-|
C#|----------------------------------------------------------------------------------------|
G#|----------------------------------------------------------------------------------------|
C#|----------------------------------------------------------------------------------------|

D#|---------------------------------------------------------------------------------------------|
A#|---------------------------------------------------------------------------------------------|
F#|-13h14h16-13h14h16-13h14h16-13h14h16-13h14h16~-14h16h18-14h16h18-14h16h18-14h16h18-14h16h18~-|
C#|---------------------------------------------------------------------------------------------|
G#|---------------------------------------------------------------------------------------------|
C#|---------------------------------------------------------------------------------------------|

D#|-----------------------------------------------------------------|
A#|-----------------------------------------------------------------|
F#|-9h11h13-9h11h13-9h11h13-9h11h13-9h11h13-9h11h13-9h11h13-9h11h13-|
C#|-----------------------------------------------------------------|
G#|-----------------------------------------------------------------|
C#|-----------------------------------------------------------------|

D#|-------------------------------------------------------------------------|
A#|-------------------------------------------------------------------------|
F#|-11h13h14-11h13h14-11h13h14-11h13h14-11h13h14-11h13h14-11h13h14-11h13h14-|
C#|-------------------------------------------------------------------------|
G#|-------------------------------------------------------------------------|
C#|-------------------------------------------------------------------------|

D#|-------------------------------------------------------------------------|
A#|-------------------------------------------------------------------------|
F#|-13h14h16-13h14h16-13h14h16-13h14h16-13h14h16-13h14h16-13h14h16-13h14h16-|
C#|-------------------------------------------------------------------------|
G#|-------------------------------------------------------------------------|
C#|-------------------------------------------------------------------------|

D#|-------------------------------------------------------------------------|
A#|-------------------------------------------------------------------------|
F#|-14h16h18-14h16h18-14h16h18-14h16h18-14h16h18-14h16h18-14h16h18-14h16h18-|
C#|-------------------------------------------------------------------------|
G#|-------------------------------------------------------------------------|
C#|-------------------------------------------------------------------------|

D#|-------------------------------------------------------|
A#|-----------17------------------------------------------|
F#|-16brb--------16pbr--14---------------16b-16---14---16-|
C#|-------------------------16---14---16------------------|
G#|-------------------------------------------------------|
C#|-------------------------------------------------------|

D#|--------------------------------------------------------------------|
A#|-17brb~---17pb-17pb-17pbr-17-17-17-14-14-14-14----------------------|
F#|-----------------------------------------------16-16-16-16-14-14-14-|
C#|--------------------------------------------------------------------|
G#|--------------------------------------------------------------------|
C#|--------------------------------------------------------------------|

D#|-----------------------------------------------------------------------------|
A#|-----------------------------------------------------------------------------|
F#|-------14-14-x-------14-14-x-----------------14-14-x-------14-14-x-----------|
C#|-14h16---------14h16---------14h16-x-x-14h16---------14h16---------14h16-x-x-|
G#|-----------------------------------------------------------------------------|
C#|-----------------------------------------------------------------------------|

D#|---------------------------------------------------------------|
A#|---------------------------------------------------------------|
F#|------14--------13--------14-------18~-------------------------|
C#|---------------------------------------------------------------|
G#|---------------------------------------------------------------|
C#|---------------------------------------------------------------|

D#|---------------------------------------------------------------|
A#|---------------------------------------------------------------|
F#|------18-------16--------14-------13--------14--------13-------|
C#|---------------------------------------------------------------|
G#|---------------------------------------------------------------|
C#|---------------------------------------------------------------|

D#|---------------------------------------------------------------|
A#|---------------------------------------------------------------|
F#|------14--------13--------14-------18~-------------------------|
C#|---------------------------------------------------------------|
G#|---------------------------------------------------------------|
C#|---------------------------------------------------------------|

D#|--------------------------------------------------------------------|
A#|--------------------------------------------------------------------|
F#|------18-------16-------18----------13~------14~------13h14--14~----|
C#|--------------------------------------------------------------------|
G#|--------------------------------------------------------------------|
C#|--------------------------------------------------------------------|

        Ends On:

D#|---------------------------------------------------------------------------|
A#|---------------------------------------------------------------------------|
F#|---------------------------------------------------------------------------|
C#|--4------------------------------------------------------------------------|
G#|--4------------------------------------------------------------------------|
C#|--4------------------------------------------------------------------------|



************************************

| /   slide up
| \   slide down
| h   hammer-on
| p   pull-off
| ~   vibrato
| +   harmonic
| x   Mute note
| b   Bend
| pb  Pre-bend
| br  Bend release
| pbr Pre-bend release
| brb Bend release bend

************************************
Добавлено: 28.09.2013
Другие материалы по этой песне:
  • Аккорды и текст

Страница создана 28.09.2013
http://primanota.ru/misc-unsigned-bands/a-heros-demise-fear-of-the-dark-chords.htm
Привет, Гость.
Предлагаем пройти революционный курс по гитаре.
Подарок от PrimaNota.Ru, забирай!