PrimaNota.ru - самый крупный в мире бесплатный архив песенных текстов, аккордов, табулатур и нот


Misc Unsigned Bands - A Direst Desire - Undesirable Brother - таба

Регистрация Запомнить меня
Войти через:  Facebook Google Twitter Vk Yandex Mail.ru

Misc Unsigned Bands - A Direst Desire - Undesirable Brother - таба

Печатать
Просмотров: 77
-------------------------------------------------------------------------------
                             UNDESIRABLE BROTHER - a Direst Desire
-------------------------------------------------------------------------------
Tabbed by: Michael Beatson
E-mail: michaeljbeatson@gmail.com

Tuning: Standard - EADGBe


Intro/Verses:

Guitar 1:
e|---------------------------------------------------------------------------|
B|---------------------------------------------------------------------------|
G|---------------------------------------------------------------------------|
D|----5b--5b--5b----9----5b--5b--5b----9----2b--2b--2b--4b---5b--5b--5b-4----|
A|--7---7---7---7/10\--7---7---7---7/10\--4---4---3---5----7---7---7---5-----|
E|-0-0-0-0-0-0-0------0-0-0-0-0-0-0------0-0-0-0-0-0-0-0--0-0-0-0-0-0-0------|

Guitar 2:
e|-------0--brbrb------------------------------------------------------------|
B|------0---brbrb------------------------------------------------------------|
G|-----0----brbrb-------ring and bend/detune---------------------------------|
D|----5-----brbrb------------------------------------------------------------|
A|---7------brbrb------------------------------------------------------------|
E|---------------------------------------------------------------------------|



Chorus:

Guitar 1:
e|---0------------0----------------------------------------------------------|
B|---3------------5----------------------------------------------------------|
G|---0--ring------0---ring---------------------------00-0--------------------|
D|---2------------4-------------2-/-9-\-2-22-/-9-9---00-0--------------------|
A|---3------------5-------------2-/10-\-2-22-/1010-\-22-0--------------------|
E|------------------------------0---0---0-00---0-0---------------------------|
                               |------------x2-----------|

Guitar 2&3: Reverb+Delay w/ fast picking and a slow slide up.
e|---------------------------------------------------------------------------|
B|----- Slide from 8th > 17th  -8888888888//////1717171717-------------------|
G|----- Slide from 9th > 16th  -9999999999//////1616161616-------------------|
D|---------------------------------------------------------------------------|
A|---------------------------------------------------------------------------|
E|---------------------------------------------------------------------------|
                               |------------x2-----------|

Guitar 1:
e|---0------------0----------------------------------------------------------|
B|---3------------5----------------------------------------------------------|
G|---0--ring------0---ring---------------------------00-0--------------------|
D|---2------------4-------------2-/-9-\-2-22-/-9-9---00-0--------------------|
A|---3------------5-------------2-/10-\-2-22-/1010-\-22-0--------------------|
E|------------------------------0---0---0-00---0-0---------------------------|
                               |------------x2-----------|

Guitar 2&3: Reverb+Delay w/ fast picking and a slow slide up.
e|---------------------------------------------------------------------------|
B|--17-------19--17----15b17----8888888888//////1717171717-------------------|
G|------------------------------9999999999//////1616161616-------------------|
D|---------------------slow--------------------------------------------------|
A|---------------------bend--------------------------------------------------|
E|---------------------------------------------------------------------------|
                               |------------x2-----------|

Guitar 1:
e|---0------------0----------------------------------------------------------|
B|---3------------5----------------------------------------------------------|
G|---0--ring------0---ring---------------------------------------------------|
D|---2------------4----------------------------------------------------------|
A|---3------------5----------------------------------------------------------|
E|---------------------------------------------------------------------------|
                             

Guitar 2&3: 
e|---------------------------------------------------------------------------|
B|--17-----------------------------------------------------------------------|
G|----------------9----------------------------------------------------------|
D|---------------------------------------------------------------------------|
A|---------------------------------------------------------------------------|
E|---------------------------------------------------------------------------|
     
                         

Intro/Verse again...

Chorus again...


Post Chorus: 

Guitar 1&2:
e|---------------------------------------------------------------------------|
B|---------------------------------------------------------------------------|
G|---------------------------------------------------------------------------|
D|-------------------------------------------------------------------4-4-0---|
A|-------------------------------------------------------------------5-5-0---|
E|-0-0-0-0-0-0-0-0-0-0-0-0-0-3-3b3b---x3---0-0-0-0-0-0-0-0-0-0-0-0-0---------|


Bridge: Repeats till end.
e|---------------------------------------------------------------------------|
B|-----------------0----0----0----0----0-------------------------------------|
G|-----------------0----0----0----0----0-000---------------------------------|
D|--0----0----0----9----9---12----7---10-440---------------------------------|
A|--5----9----7----7---10---10----9----9-550---------------------------------|
E|--7----7----8----8---------------------------------------------------------|


************************************

| /   slide up
| \   slide down
| h   hammer-on
| p   pull-off
| ~   vibrato
| +   harmonic
| x   Mute note
| b   Bend
| pb  Pre-bend
| br  Bend release
| pbr Pre-bend release
| brb Bend release bend

************************************
Добавлено: 15.10.2013
Другие материалы по этой песне:
  • Аккорды и текст

Страница создана 15.10.2013
http://primanota.ru/misc-unsigned-bands/a-direst-desire-undesirable-brother-chords.htm
Привет, Гость.
Предлагаем пройти революционный курс по гитаре.
Подарок от PrimaNota.Ru, забирай!