PrimaNota.ru - самый крупный в мире бесплатный архив песенных текстов, аккордов, табулатур и нот


Misc Unsigned Bands - A Direst Desire - Just Get Over Yourself - таба

Регистрация Запомнить меня
Войти через:  Facebook Google Twitter Vk Yandex Mail.ru

Misc Unsigned Bands - A Direst Desire - Just Get Over Yourself - таба

Печатать
Просмотров: 66
-------------------------------------------------------------------------------
                     JUST GET OVER YOURSELF - a Direst Desire
-------------------------------------------------------------------------------
Tabbed by: Michael Beatson
E-mail: michaeljbeatson@gmail.com

Tuning: EADGBe


Intro: Guitar 1

e|--0----------------3--------0-------0--------------------------------------|
B|--0----------------3--------0-------0--------------------------------------|
G|--0----------------0--------2-------0-----------------------------2222222--|
D|--2----------------0--------2-------2-------------------00000000002222222--|
A|--2----------------2--------0-------2-------------------22222222220000000--|
E|--0----------------3----------------0-------------------3333333333---------|
                                                        PM\\\\\\\\\\\\\\\\\
 
Intro/Chorus: Guitar 2

e|--0000-0-00-000-70--0000-0-00-0007-7--0000-0-00-000-70--0000-0-00-0007-7---|
B|--0000-0-00-000-00--0000-0-00-0000-0--0000-0-00-000-00--0000-0-00-0000-0---|
G|--9979-9119-979--9--9979-9119-9799-9--9979-9119-979--9--9979-9119-9799-9---|
D|---------------------------------------------------------------------------|
A|---------------------------------------------------------------------------|
E|---------------------------------------------------------------------------|


Verse 1: Guitar 1 - Palm Muted with accented notes

e|--00000000000000003333333300000------|
B|--00000000000000003333333300000------|
G|--00000000000000000000000022222------|
D|--22222222222222220000000022222------|
A|--222222222222222222222222000002p0---|
E|--000000000000000033333333--------3--|


Verse 1: Guitar 2

e|---------------------------------------------------------------------------|
B|---------------------------------------------------------------------------|
G|------4-----4brbr------7-----9-7-------4-----4brbr------7------------------|
D|-----5-----5----------9-----7---7br---5-----5----------9------7------79p7--|
A|--5/7---5/7-------7/10---7/9-------5/7---5/7-------7/10----7/9-7/97/9----9-|
E|---------------------------------------------------------------------------|


Mini Instrumental:

Guitar 1 - Em strums

Guitar 2:
e|-----------0-\-------------------------------------------------------------|
B|--------0--0--\-Detune---------x2------------------------------------------|
G|------0--0-0--/-Neck Bend--------------------------------------------------|
D|-----5-5--55-/-------------------------------------------------------------|
A|--5/7----------------------------------------------------------------------|
E|---------------------------------------------------------------------------|


Verse 2: Same as Verse 1


Chorus: Guitar 1

e|--000000000000000033333333--0-0------|
B|--000000000000000033333333--0-0------|
G|--000000000000000000000000--2-2------|
D|--222222222222222200000000--2-2------|
A|--222222222222222222222222--0-0------|
E|--000000000000000033333333-----------|


Chorus: Guitar 2 

e|--0000-0-00-000-70--0000-0-00-0007-7--0000-0-00-000-70--0000-0-00-0007-7---|
B|--0000-0-00-000-00--0000-0-00-0000-0--0000-0-00-000-00--0000-0-00-0000-0---|
G|--9979-9119-979--9--9979-9119-9799-9--9979-9119-979--9--9979-9119-9799-9---|
D|---------------------------------------------------------------------------|
A|---------------------------------------------------------------------------|
E|---------------------------------------------------------------------------|


Post Chorus Instrumental:

Guitar 1 - Strum: Em,G

Guitar 2:

e|-------------0-\-----------------------------------------------------------|
B|-------------0--\-Detune--------------0-\----------------------------------|
G|-------------4--/-Neck Bend-----------0--\-Detune--------------------------|
D|------5-5br7-7-/----------------------5--/-Neck Bend-----------------------|
A|--5/77-7--------------------5-5-------7-/----------------------------------|
E|------------------------5/77-7-753br0--------------------------------------|


Verse 2:

Guitar 1: Same as Verse 1&2

Guitar 2:

e|-------------------------------------------------------------------9+------|
B|-------------------------------------------------------------------9+------|
G|--Instrumental-------------------------4-----4brbr------7------9-7-9+------|
D|--Ring out-----------7------79p7------5-----5----------9------7----9+------|
A|------------------7/9-7/97/9----9--5/7---5/7-------7/10----7/9-------------|
E|---------------------------------------------------------------------------|
                                                                     + or headstock
                                                                       nut harmonics

Chorus 2 + Instrumental before Bridge: 

Guitar 1: Same as Chorus 1

Guitar 2:

e|--0000-0-00-000-70--0000-0-00-0007-7--0000-0-00-000-70--0000-0-00-0007-7---|
B|--0000-0-00-000-00--0000-0-00-0000-0--0000-0-00-000-00--0000-0-00-0000-0---|
G|--9979-9119-979--9--9979-9119-9799-9--9979-9119-979--9--9979-9119-9799-9---|
D|---------------------------------------------------------------------------|
A|---------------------------------------------------------------------------|
E|---------------------------------------------------------------------------|

e|----------------------------------7p0--------------------------------------|
B|------------------------------8h10---7br-----------------------------------| 
G|---7p0-9br---7p0-------7p0-9br-------------7p0-9br---7p0-------7p0-9-9br9br|
D|7h9-------7h9---5br-7h9-----------------7h9-------7h9---5br-7h9------------| 
A|---------------------------------------------------------------------------| 
E|---------------------------------------------------------------------------| 

e|----------------------------------7p0--------------------------------------|
B|------------------------------8h10---7br-----------------------------------| 
G|---7p0-9br---7p0-------7p0-9br-------------7p0-9br---7p0-------7p0-9-9br9br|
D|7h9-------7h9---5br-7h9-----------------7h9-------7h9---5br-7h9------------| 
A|---------------------------------------------------------------------------| 
E|---------------------------------------------------------------------------| 

e|-0-00000-000-00--0-0-0-00--0-0-0-0000-00000-000-00--0-0-0-0-0--0-0-0--0-0--|
B|-3/55555/888\55/101010\55/121212\3333/55555/888\55/101010\510/12-x10/12-x--|
G|-----------------------------------------------------------------9------9--|
D|---------------------------------------------------------------------------|
A|---------------------------------------------------------------------------|
E|---------------------------------------------------------------------------|

e|-0-00000-000-00--0-0-0-00--0-0-0-000-00000-000-00--0-0-0-00--0--0-0--0-0---|
B|-3/55555/888\55/101010\55/121212\333/55555/888\55/101010\55/12/1515/1717---|
G|---------------------------------------------------------------------------|
D|---------------------------------------------------------------------------|
A|---------------------------------------------------------------------------|
E|---------------------------------------------------------------------------|


Bridge Part A: (spoken word)

Guitar 1:

e|------------------------------0--------------------------------------------|
B|----------------------0--------1p0-----------------------------------------|
G|------0-------0-----2--2----0-----0-------Repeats--------------------------|
D|----2--2----0--0-0-2-2--2--2-2---------------------------------------------|
A|---2-2--2--2-2--2-0------03------------------------------------------------|
E|--0------03----------------------------------------------------------------|


Guitar 2: 

Get Wanky with random strums, bass notes, bendy high notes, harmonics and noises..


Bridge Part B:

Guitar 1: Same as Part A

Guitar 2: Slide Guitar

e|---------------------------------------------------------------------------|
B|---------------------------------------------------------------------------|
G|------9-----------9-9/11\9/11\9-----9--------------------------------------|
D|--7/9---7/9-5-7/9---------------7/9---7/9-5-5/7\\\2----------Repeat x2-----|
A|---------------------------------------------------------------------------|
E|---------------------------------------------------------------------------|


Bridge Part C:

Guitar 1: Heavy Chords: Em, G, A, C.

Guitar 2: Slide Guitar or fast picking or whatever

e|---------------------------------------------------------------------------|
B|---------------------------------------------------------------------------|
G|---------------------------------------------------------------------------|
D|---------------------------------------------------------------------------|
A|--7-------10-------12-------7/9\\\\\\7-------------------------------------|
E|---------------------------------------------------------------------------|

e|---------------------------------------------------------------------------|
B|---------------------------------------------------------------------------|
G|------9-----------9-9/11\9/11\9-----9--------------------------------------|
D|--7/9---7/9-5-7/9---------------7/9---7/9-5-5/7\\\2------------------------|
A|---------------------------------------------------------------------------|
E|---------------------------------------------------------------------------|


Outro:

Guitar 1:

e|---------------------------------------------------------------------------|
B|---------------------------------------------------------------------------|
G|-----------------------0------2--2-----------------------------------------|
D|-----------------------0------2--2-----------------------------------------|
A|-----------------------2------0--0-----------------------------------------|
E|-----------------------3---------------------------------------------------|


Guitar 2:

e|------------------------------------|
B|------------------------------------|
G|-Ring-Out from Bridge---------------|
D|--2-----------------(/5)------------|
A|------------------------------------|
E|------------------------------------|

e|-------7h0---0--------10h0---0-------------12h0-----0----------10h0-7h0----|
B|-----5----5---5------8----8---8--------10------10----10------8---------7br-|
G|-5/77-7-----7----7/99-9-----9----9/1111--11-------11-----7/99-9------------|
D|---------------------------------------------------------------------------|
A|---------------------------------------------------------------------------|
E|---------------------------------------------------------------------------|


************************************

| /   slide up
| \   slide down
| h   hammer-on
| p   pull-off
| ~   vibrato
| +   harmonic
| x   Mute note
| b   Bend
| pb  Pre-bend
| br  Bend release
| pbr Pre-bend release
| brb Bend release bend

************************************
Добавлено: 27.07.2013
Другие материалы по этой песне:
  • Аккорды и текст

Страница создана 27.07.2013
http://primanota.ru/misc-unsigned-bands/a-direst-desire-just-get-over-yourself-chords.htm
Привет, Гость.
Предлагаем пройти революционный курс по гитаре.
Подарок от PrimaNota.Ru, забирай!